tablaturas, partituras y acordes para guitarra
Busca por banda/artista:
 
y/o título de la canción:
A B C D E F G H I J K L M N O P Q R S T U V W X Y Z 0 1 2 3 4 5 6 7 8 9 / Top 100 tabs
Categorías
Usuarios
usuario:
Darse de alta
password:
Artistas más visitados
Publicidad
TOP acordes y tablaturas de Disturbed


Prayer
de Disturbed
Puntúa este acorde/tab:      
(0.3/5)
Reportar este acorde/tab
  Añadir a tus favoritos
  Imprimir
Band: Disturbed
Song: Prayer
Album: Believe
Tabbed by: Taylor Reese
Email: tayman1415@hotmail.com
Tuning: Dropped D
intro
E|-----------------------------------------|
B|-----------------------------------------|
G|-----------------------------------------|
D|-0---0-0--2-0-2-0----0---0-0--2-0-2-0----|
A|-0---0-0--2-0-2-0----0---0-0--2-0-2-0----|
D|-0---0-0--2-0-2-0----0---0-0--2-0-2-0----|

   verse: 
E|------------------------------------------------------------------------------
B|------------------------------------------------------------------------------
G|----------------------------------------5---5-5--5-5-5-5----------------------
D|--0--0-0--0-0-0-0----0---0-0--0-0-0-0---5---5-5--5-5-5-5-------0---0-0-2-0-2-0
A|--0--0-0--0-0-0-0----0---0-0--0-0-0-0---3---3-3--3-3-3-3-------0---0-0-2-0-2-0
D|--0--0-0--0-0-0-0----0---0-0--0-0-0-0--------------------------0---0-0-2-0-2-0
   PM..................................

E|----------------------------------------------------------------------------|
B|----------------------------------------------------------------------------|
G|-----------------------------------------5---5-5--5-5-5-5-------------------|
D|--0---0-0--0-0-0-0----0---0-0--0-0-0-0---5---5-5--5-5-5-5---0---0-0-2---0---|
A|--0---0-0--0-0-0-0----0---0-0--0-0-0-0---3---3-3--3-3-3-3---0---0-0-2---0---|
D|--0---0-0--0-0-0-0----0---0-0--0-0-0-0----------------------0---0-0-2---0---|
   PM...................................

   pre-chorus:
E|--------------------------|
B|--------------------------|
G|--------------------------|
D|--6--1---1-1--1-1---/7---|
A|--6--1---1-1--1-1---/7---|
D|--6--1---1-1--1-1---/7---|

   chorus: 
E|-----------------------------------------------------|
B|-----------------------------------------------------|
G|-----------------------------------------------------|
D|-7-7-7-7-7---2-2---9-9-9---7-7-7-7-7---11-11---9-9-9-|
A|-7-7-7-7-7---2-2---9-9-9---7-7-7-7-7---11-11---9-9-9-|
D|-7-7-7-7-7---2-2---9-9-9---7-7-7-7-7---11-11---9-9-9-|
   
post-chorus:
E|----------------------------------------|
B|----------------------------------------|
G|--3---3-3--3-3-3-3----3---3-3--3-3-3-3--|
D|--3---3-3--3-3-3-3----3---3-3--3-3-3-3--|
A|--1---1-1--1-1-1-1----1---1-1--1-1-1-1--|
D|----------------------------------------|

   
Break: guitar
E|-----------------------------------------------------------|
B|-----------------------------------------------------------|
G|-----------------------------------------------------------|
D|-----------------------------------------------------------|
A|-----------------------------------------------------------|
D|--1-1--0-1---1-1--0-1----1--0--1----1--0--1-----1---0---2--|

   bridge: Return to me….
E|-----------------------------------------------------------|
B|-----------------------------------------------------------|
G|-----------------------------------------------------------|
D|-1-1--0-1---1-1--0-1----1--0--1----1--0--1-----1---0---2---|
A|-1-1--0-1---1-1--0-1----1--0--1----1--0--1-----1---0---2---|
D|-1-1--0-1---1-1--0-1----1--0--1----1--0--1-----1---0---2---|

     outro:
E|-----------------------------------------------------------------|
B|-----------------------------------------------------------------|
G|-----------------------------------------------------------------|
D|--0---0-0--0-0-0-0----0---0-0--0-0-0-0----0---0-0--0-0-0-0----0--|
A|--0---0-0--0-0-0-0----0---0-0--0-0-0-0----0---0-0--0-0-0-0----0--|
D|--0---0-0--0-0-0-0----0---0-0--0-0-0-0----0---0-0--0-0-0-0----0--|
   PM..............................................................


end


email me with any questions
		   
AcordesyTabs.com © 2008 Acordes y Tablaturas para guitarra. Tabs and Chords for guitar. Aviso Legal - Contacto
El uso de este sitio está sujeto a la aceptación de los términos y condiciones (27 usuarios online)