tablaturas, partituras y acordes para guitarra
Busca por banda/artista:
 
y/o título de la canción:
A B C D E F G H I J K L M N O P Q R S T U V W X Y Z 0 1 2 3 4 5 6 7 8 9 / Top 100 tabs
Categorías
Usuarios
usuario:
Darse de alta
password:
Artistas más visitados
Publicidad
TOP acordes y tablaturas de Disturbed


Remember
de Disturbed
Puntúa este acorde/tab:      
(1.1/5)
Reportar este acorde/tab
  Añadir a tus favoritos
  Imprimir
Disturbed
Title: Remember
Album: Believe
Guitarist: Dan Donegan

TUNNING: DROP D / DOWN 1/2 STEP
(Db Ab Db Gb Bb Eb)


INTRO:
Eb|-----------------------------------------------------------------------------
Bb|--3-----3---------------------------3-----3----------------------------------
Gb|--2-x-x-3---x-x-x-x-7--0-3-0-3------2-x-x-3---x-x-x-x-7--0-3-x---------------
Db|--0-x-x-3---x-x-x-x-7--0-3-0-3------0-x-x-3---x-x-x-x-7--0-3-x---------------
Ab|--0-x-x-0---x-x-x-x-7--0-3-0-3------0-x-x-0---x-x-x-x-7--0-3-x-------x8------
Db|--x-x-x-x---x-x-x-x-7--0-3-0-3------x-x-x-----x-x-x-x-7--0-3-x---------------

VERSE:
-----------------------------------------------|--------------------------------
-----------------------------------------------|--------------------------------
-----------------------------------------------|--------------------------------
-----------------------------------------------|------10------------------------
----------13----------12-----------------------|------10------------------------
--0-12-14-----0-12-14-----12-14-12-14----------|------10------------------------
 
CHORUS:(------------------------------------------------------------------------
--------------------------------------------------------------------------------
--10-7--7--4--7----10-7-7-9-----------------------------------------------------
--8--7--5--2--5----8--7-5-7-----------------------------------------------------
--8--5--5--2--5----8--5-5-7-----------------------------------------------------
--8-----5--2--5----8----5-7-----------------------------------------------------
 

CHORUS:   
--------------------------------------------------------------------------------
--------------------------------------------------------------------------------
--------------------------------------------------------------------------------
--7-9-7-5-3-0-3------3-5-3---------------7-9-7-5-3--0-2/3-5-7-10----------------
-----------------x4--------5-3-5-5--x2------------------------------------------
--------------------------------------------------------------------------------
                                                                              
CHORUS: 
--------------------------------------------------------------------------------
--666---666---66---666---666---6---68-10-8----------------------8-10-8---------
------5-----5----5-----7-----7---7----------10-7---10-7-10-7-10-----------------
--------------------------------------------------------------------------------
--------------------------------------------------------------------------------
--------------------------------------------------------------------------------
                                                                              
CHORUS: CONTINUED
--------------------------------------------------------------------------------
--------------------------------------------------------------------------------
--10-9-~~~~~-10-----------------------------------------------------------------
--------------------------------------------------------------------------------
--------------------------------------------------------------------------------
--------------------------------------------------------------------------------
                                                                              
HEAVY CHORUS:
--------------------------------------------------------------------------------
--------------------------------------------------------------------------------
--8/12853----8/1285/7----8/12853/52------------------------------------
--8/12853----8/1285/7----8/12853/52------------------------------------
--8/12853----8/1285/7----8/12853/52------------------------------------
--8/12853----8/1285/7----8/12853/52------------------------------------
                                                                              
INTERLUDE:
--------------------------------------------------------------------------------
--3----------3------------------------------------------------------------------
--2----------3-------------7---0-3-0-3------------------------------------------
--0----------3---x-x-x-x---7---0-3-0-3------------------------------------------
--x----------0---x-x-x-x---7---0-3-0-3------------------------------------------
--x----------x---x-x-x-x---7---0-3-0-3------------------------------------------
  PM.-------                   PM.----                                        


		   
AcordesyTabs.com © 2008 Acordes y Tablaturas para guitarra. Tabs and Chords for guitar. Aviso Legal - Contacto
El uso de este sitio está sujeto a la aceptación de los términos y condiciones (41 usuarios online)