tablaturas, partituras y acordes para guitarra
Busca por banda/artista:
 
y/o título de la canción:
A B C D E F G H I J K L M N O P Q R S T U V W X Y Z 0 1 2 3 4 5 6 7 8 9 / Top 100 tabs
Categorías
Usuarios
usuario:
Darse de alta
password:
Artistas más visitados
Publicidad
TOP acordes y tablaturas de Disturbed


Estás en: Inicio > Letra D > Acordes y tablaturas de Disturbed > Shout 2000 2
Shout 2000 2
de Disturbed
Puntúa este acorde/tab:      
(0.6/5)
Reportar este acorde/tab
  Añadir a tus favoritos
  Imprimir
Disturbed-shout 2000
Album:the sickness                      Ryan Phillips :D u_freak66@hotmail.com e




   Intro:
   e|------------------------------------------------|
   b|------------------------------------------------|
   g|------------------------------------------------|
   d|-7----------------------------------------------|
   a|-7------7--7---7--7--7-----7--7-----7--7----7--7| 
   e|-7------7--7---7--7--7-----7--7-----7--7----7--7|
PM           .   .  .  .  .     .  .     .  .    .  .
  Verse:
  e|----------------------------------------------------------------------------
  b|----------------------------------------------------------------------------
  g|----------------------------------------------------------------------------
  d|-5------4--------7-----4-----5----4--------0--0--0--0---------0--0--0--0----
  a|-3------3--------3-----3-----3----3--------0--0--0--0---------0--0--0--0----
  e|-------------------------------------------0--0--0--0---------0--0--0--0----


     Bridge:                       'would you nev-er shout.'      'Huh'\\\-sa
  e|---------------------------|  |-------------------------17-17-17-17-| |-----
  b|---------------------------|  |--10---------------------------------| |--5--
  g|---------------------------|  |--12}bend up whole step--------------| |--7}b
  d|---------------------------|  |-------------------------------------| |-----
  a|-0------3---0--0-------3---|  |-------------------------------------| |-----
  e|----5-------------5--------|  |----listen closely for this part-----| |-----

   Chorus:
   e---------------------------------------------------  ----------------------
   b---------------------------------------------------   ---------------------
   g---------------------------------------------------    --------------------
   d--7------------------7----5---7-----5---7-----5---7     ----3--------------
   a--7------------------7----5---7-----5---7-----5---7      ---3--------------
   e--7----7---7--7--7---7----5---7-----5---7-----5---7 x2    --3----3---3---3-
                                                                                
   |----------------------------------------------     |------------------------
   |----------------------------------------------     |------------------------
   |----------------------------------------------     |------------------------
   |--0----------------0-----5---7-----5---7------5    |--7--5--10--7----5----10
   |--0----------------0-----5---7-----5---7------5    |--7--5--10--7----5----10
   |--0---0--0--0--0---0-----5---7-----5---7------5 x2 |--7--5--10--7----5----10
		   
AcordesyTabs.com © 2008 Acordes y Tablaturas para guitarra. Tabs and Chords for guitar. Aviso Legal - Contacto
El uso de este sitio está sujeto a la aceptación de los términos y condiciones (38 usuarios online)