tablaturas, partituras y acordes para guitarra
Busca por banda/artista:
 
y/o título de la canción:
A B C D E F G H I J K L M N O P Q R S T U V W X Y Z 0 1 2 3 4 5 6 7 8 9 / Top 100 tabs
Categorías
Usuarios
usuario:
Darse de alta
password:
Artistas más visitados
Publicidad
TOP acordes y tablaturas de Disturbed


Voices
de Disturbed
Puntúa este acorde/tab:      
(0.7/5)
Reportar este acorde/tab
  Añadir a tus favoritos
  Imprimir
This is my first tab and if you don't like it then get used to it cause they'll 

Drop the low E into a D so you've got D-A-D-G-B-e

I'm Pretty sure about this but don't kill me if its not perfect.

                    Intro                  

  ||------------------------------------------------------
  ||------------------------------------------------------
  ||------------------------------------------------------  
  ||---10------ 8--------10---------8---------------------   Play that a few tim
  ||---8--------8---------9---------10--------------------
  ||---8--------8---------8---------8---------------------

                  Main Riff
 
  ||--------------------------------------------------
  ||--------------------------------------------------
  ||--------------------------------------------------
  ||--6---h8---h8---h8---h8------2--------------------   Play that a few times t
  ||--6---h8---h8---h8---h8------2--------------------   
  ||--6---h8---h8---h8---h8------2--------------------


  ||--------------------------------------------------
  ||--------------------------------------------------
  ||--------------------------------------------------
  ||--6---h8---h8---h8---h8------9----9---------------   
  ||--6---h8---h8---h8---h8------9----9---------------   
  ||--6---h8---h8---h8---h8------9----9---------------


I'm not sure about the verse but the bit after the 'ZOOOOOOOOOAAH' (where he tal
which I don't understand ) is ..........

  ||---------------------------------------------------
  ||---------------------------------------------------
  ||---------------------------------------------------
  ||---8-----6-----9------3------4-----6---------------  do that as many times a
  ||---8-----6-----9------3------4-----6---------------
  ||---8-----6-----9------3------4-----6---------------

  ||----------------------------------
  ||----------------------------------
  ||----------------------------------
  ||-----8------6------9----9----9----
  ||-----8------6------9----9----9----
  ||-----8------6------9----9----9----


If someone can fill in the gaps i'd be most thankful anyway theres my parts from
		   
AcordesyTabs.com © 2008 Acordes y Tablaturas para guitarra. Tabs and Chords for guitar. Aviso Legal - Contacto
El uso de este sitio está sujeto a la aceptación de los términos y condiciones (25 usuarios online)