tablaturas, partituras y acordes para guitarra
Busca por banda/artista:
 
y/o título de la canción:
A B C D E F G H I J K L M N O P Q R S T U V W X Y Z 0 1 2 3 4 5 6 7 8 9 / Top 100 tabs
Categorías
Usuarios
usuario:
Darse de alta
password:
Artistas más visitados
Publicidad
TOP acordes y tablaturas de Metallica


Estás en: Inicio > Letra M > Acordes y tablaturas de Metallica > Jump in the fire solo
Jump in the fire solo
de Metallica
Puntúa este acorde/tab:      
(0/5)
Reportar este acorde/tab
  Añadir a tus favoritos
  Imprimir

Jump in the Fire(Solo)
Performed by Metallica
tabs by Robert Hamner

This is the fill played over the intro right before the first verse
e---3-----------------------------------------------------------------
b/3---6p3-3-6p3-3 6p3-3-6p3-3-6p3------3-6b--------------------------------------------------
g--------5-----5-----5-----5-----5-3-5--------------------------------------
d--------------------------------------------------------------------
a--------------------------------------------------------------------
E--------------------------------------------------------------------

 Then, this is the first solo
e---------------------------------------------------3-------------------
b-6p3p0-------6p3p0-------6p3p0-------6p3p0-------3---6-3-------------------------------------
g------ 5p3p0------ 5p3p0-------5p3p0-------5p3p0---------5br-3----------------------------------
d---------------------------------------------------------------5-------
a----------------------------------------------------------------------
E----------------------------------------------------------------------
                                                  
e----3--------------------15----------------------------------------------
b-3b---6p3------------15b----18p15------------------3b---3b--3b---3b-3----------------------
g----------5 5p3-------------------17 17p15---------3b---3b--3b---3b-3---------------------
d----------------5-5------------------------17-17-5----5----5---5----------------
a----------------------------------------------------------------------
E----------------------------------------------------------------------
    I don't know if this section is exact, but it's close
e----------------------------------------------------------------------
b----3-6p3---3-6-6p3 6p3-6p3---------------------------------------------------
g-/5-------5-----------------5-3---3-5-5b(ah)p3------------------------------------
d--------------------------------5--------------5-3-----------------------
a---------------------------------------------------6p5p3-------------------
E---------------------------------------------------------6p5p3-3-6b-3----------
    many times
e---------------]----15------------------------15---------------------------
b--17br-15----15]-15----18p15----------18br-15-----------------------------------------------
g--17br-15----15]-------------17-15-17------------------------------------------------
d----------17---]---------------------------------------------------------
a---------------]-------------------------------------------------------
E---------------]-------------------------------------------------------

ah=artificial harmonic
b=bend
br=bend and release
p=pull off
/=slide up to
=slide down to

I don't have the second solo yet. I may put it on here one day.  For
the other riffs, just look at the other tabs.  Any questions or 
comments, e-mail me at rhloser@hotmail.com


		   
AcordesyTabs.com © 2008 Acordes y Tablaturas para guitarra. Tabs and Chords for guitar. Aviso Legal - Contacto
El uso de este sitio está sujeto a la aceptación de los términos y condiciones (87 usuarios online)