tablaturas, partituras y acordes para guitarra
Busca por banda/artista:
 
y/o título de la canción:
A B C D E F G H I J K L M N O P Q R S T U V W X Y Z 0 1 2 3 4 5 6 7 8 9 / Top 100 tabs
Categorías
Usuarios
usuario:
Darse de alta
password:
Artistas más visitados
Publicidad
TOP acordes y tablaturas de 311


Estás en: Inicio > Letra 3 > Acordes y tablaturas de 311 > Ill Be Here A While
Ill Be Here A While
de 311
Puntúa este acorde/tab:      
(0.1/5)
Reportar este acorde/tab
  Añadir a tus favoritos
  Imprimir
This is Cyanmonkey’s work.  Please do not take credit for his work.  He is lonel

Cyanmonkey@yahoo.com

311 – I’ll Be Here A While

Acoustic Intro:
Eb 0--0-0---0-0-2-0-2-3-3-2-0----------------------0---0-0---0-0-2-0-2-3----2---
Bb ---------------1-1-1-----------3-1-0---------1(let ring)------1-1-1---0----0-
Gb 2--2-2---2-2--------4-4-4-----------0h2h4-------2—2-2---2-2-------------0----
Db -----------------------------------------------------------------------------
Ab -----------------------------------------------------------------------------
Eb -----------------------------------------------------------------------------

Eb -----------------------------------------------------------------------------
Bb 1—0--------------------------------------------------------------------------
Gb –0—0-------------------------------------------------------------------------
Db -----------------------------------------------------------------------------
Ab -----------------------------------------------------------------------------
Eb -----------------------------------------------------------------------------

Chorus:
In the chorus the intro is played over it in the background.

I’ll beeeeeeeeeeeeee here a while…
Eb 0---0-0-3-3-3-3-3-3-3-3-3-3-3-3
Bb 1---1-1-5-5-5-5-3-3-3-3-3-3-3-3
Gb 2---2-2-5-5-5-5-4-4-4-4-4-4-4-4
Db --------------------------------------
Ab --------------------------------------
Eb --------------------------------------

Verse:

The verse is just two chords played alternating between the two:

A Bmin and of course a G:

Eb 2------------------------3
Bb 3------------------------3
Gb 4------------------------5
Db ---------------------------
Ab ---------------------------
Eb ---------------------------


		   
AcordesyTabs.com © 2008 Acordes y Tablaturas para guitarra. Tabs and Chords for guitar. Aviso Legal - Contacto
El uso de este sitio está sujeto a la aceptación de los términos y condiciones (17 usuarios online)