tablaturas, partituras y acordes para guitarra
Busca por banda/artista:
 
y/o título de la canción:
A B C D E F G H I J K L M N O P Q R S T U V W X Y Z 0 1 2 3 4 5 6 7 8 9 / Top 100 tabs
Categorías
Usuarios
usuario:
Darse de alta
password:
Artistas más visitados
Publicidad
TOP acordes y tablaturas de Doors


Estás en: Inicio > Letra D > Acordes y tablaturas de Doors > Love Street
Love Street
de Doors
Puntúa este acorde/tab:      
(0.4/5)
Reportar este acorde/tab
  Añadir a tus favoritos
  Imprimir
love street

intro/verse
riff 1
     Am       G         Gm          F
-----5-7-5--------------------5-----------------
--------------8---8-----8---8---8-6-------6-----
----------------7---------7-------------5---5---
------------------------------------5s7-------7-
------------------------------------------------
-17s--------------------------------------------

Am       G         Gm           F
-5-7-5--------------------5-----------------
---------8-------8--8---8---8-6-------6-----
---------------7------7-------------5---5---
-----------8h9------------------5s7-------7-
--------------------------------------------
--------------------------------------------

(1)she lives on love street lingers long on love street
(2)i see you live on love street theres the store where the creatures meet

she has a house and garden i would like to see what happens
i wonder what they do in there summer sunday and a year* 
interlude
Bm        A         Am      G
-5-7-7-7--5------5--5--7-5--------
----------------------------8---8-
-------------5s6--------------7---
----------------------------------
----------------------------------
----------------------------------

(riff 1)
she has robes and she has monkeys lazy diamond studed flunkies

chorus
Gm      Am         Bb              Fmaj7
she has wisdom and knows whatt to do
Gm      Fmaj7  Bb         A7
she has me and she has you

2x
Bm        A         Am      G

chorus
Am      Bm         C               Gmaj7
she has wisdom and knows whatt to do
Am      Gmaj7  C          G7         Am
she has me and she           has you

Am       G         Gm           F Am       G         Gm           F
*(i guess i like it fine so far)

interlude
Gm  F  C  D  Dsus4  

outro
Bm        A         Am      G



AcordesyTabs.com © 2008 Acordes y Tablaturas para guitarra. Tabs and Chords for guitar. Aviso Legal - Contacto
El uso de este sitio está sujeto a la aceptación de los términos y condiciones (27 usuarios online)