tablaturas, partituras y acordes para guitarra
Busca por banda/artista:
 
y/o título de la canción:
A B C D E F G H I J K L M N O P Q R S T U V W X Y Z 0 1 2 3 4 5 6 7 8 9 / Top 100 tabs
Categorías
Usuarios
usuario:
Darse de alta
password:
Artistas más visitados
Publicidad
TOP acordes y tablaturas de Evolución


Esclavo
de Evolución
Puntúa este acorde/tab:      
(0.6/5)
Reportar este acorde/tab
  Añadir a tus favoritos
  Imprimir
Aqui esta la cancion, saquenla oyendo la cancion, ahi va...

Intro

e|------------2--2------------|
B|------------2--2------------|
G|------------4--4------------|
D|------------4--4-----4---1--|
A|------------2--2-----4---1--|
D|-7-8-9-10------------4---1--|


Riff I

e|--2--2------------|
B|--2--2------------|
G|--4--4------------|
D|--4--4-----4---1--|
A|--2--2-----4---1--|
D|-----------4---1--|

Riff II
                        *(Desde aqui es de donde se repite 4 las varias veces)  
e|--2--2----------------|--2-2-2-2---------------------|
B|--2--2----------------|--2-2-2-2---------------------|
G|--4--4----------------|--4-4-4-4---------------------|
D|--4--4-----4---1(x10)-|--4-4-4-4--4-4/8--8-8-8-8-8-8-|
A|--2--2-----4---1(x10)-|--2-2-2-2--4-4/8--8-9-8-9-8-9-|
D|-----------4---1(x10)-|-----------4-4/8--8-8-8-8-8-8-|

Riff III

e|--2-2-2-2---------------------|
B|--2-2-2-2---------------------|
G|--4-4-4-4---------------------|
D|--4-4-4-4--4-4/8--6-8-6-8-6-8-|
A|--2-2-2-2--4-4/8--6-8-6-8-6-8-|
D|-----------4-4/8--6-8-6-8-6-8-|


Intro
En la lejanía... ¿qué escucho?... 
Riff I
son sus gritos y nunca saldrá. 
Riff I
El es un demonio corrupto... 
Riff II(*se repite 4 veces)
maldito esclavo de la sociedad.

Riff I
Lo encerraron en esa horrible celda;
Riff I
su gran sueño tan joven murió. 
Riff I
Su inocencia enterrada; 
Riff II(*se repite 4 veces)
el sistema lo contaminó.

Riff I
Le enseñaron cuando era pequeño 
Riff I
a creer en su Dios material, 
Riff I
a aceptar que el sistema es su dueño 
Riff II(*se repite 3 veces)
y a apoyar a su clase social... 
Riff III(se repite 5 veces)
maldito esclavo. 

Bueno gente, buena vibra, viva el rock nacional y Evolución,
bueno gente, tuanis...
		   
AcordesyTabs.com © 2008 Acordes y Tablaturas para guitarra. Tabs and Chords for guitar. Aviso Legal - Contacto
El uso de este sitio está sujeto a la aceptación de los términos y condiciones (33 usuarios online)