tablaturas, partituras y acordes para guitarra
Busca por banda/artista:
 
y/o título de la canción:
A B C D E F G H I J K L M N O P Q R S T U V W X Y Z 0 1 2 3 4 5 6 7 8 9 / Top 100 tabs
Categorías
Usuarios
usuario:
Darse de alta
password:
Artistas más visitados
Publicidad
TOP acordes y tablaturas de Who


Estás en: Inicio > Letra W > Acordes y tablaturas de Who > Baba o reiley
Baba o reiley
de Who
Puntúa este acorde/tab:      
(0.2/5)
Reportar este acorde/tab
  Añadir a tus favoritos
  Imprimir

Song: Baba O' Reiley
Artist: The Who

This is a great song.  Long live The Who!  (A little late for Keith)  
 
After the synthesizer in the beginning, the first time the main guitar riff
comes in (at about 34 seconds in) it is played by a piano only as it is for the next eight times playing those three notes (or until he starts singing when the guiar comes in.)  By the way the notes for that are
F, C, and Bb just under middle C.

For most of the song, its just these.

e---------------------------------------
b---------------------------------------
g-----------5--3------------------------
d--3--------5--3------------------------
a--3--------3--1------------------------
E--1------------------------------------

Or these, if you think they sound better

e---------------------------------------
b---------------------------------------
g------------6--4-----------------------
d--3---------5--3-----------------------
a--3---------3--1-----------------------
E--1------------------------------------

And the little solo part is

e--14--14----10h11-11-11---14-16-14-18-14-14-11------11----11----------------------------
b---------14------------------------------------14------14----14-/14-/14-/14 /14-/14-/14-
g----------------------------------------------------------------------------------------
d----------------------------------------------------------------------------------------
a----------------------------------------------------------------------------------------
E----------------------------------------------------------------------------------------

Play this over the first three chords backwards.

e----12--13--15----12--13--15----12-13-15--
b------------------------------------------
g------------------------------------------
d------------------------------------------
a------------------------------------------
E------------------------------------------

And there you go.  I'm not 100% sure about any of these elements but there aren't many tabs for this so hopefully it'll spur some corrections.

		   
AcordesyTabs.com © 2008 Acordes y Tablaturas para guitarra. Tabs and Chords for guitar. Aviso Legal - Contacto
El uso de este sitio está sujeto a la aceptación de los términos y condiciones (20 usuarios online)