tablaturas, partituras y acordes para guitarra
Busca por banda/artista:
 
y/o título de la canción:
A B C D E F G H I J K L M N O P Q R S T U V W X Y Z 0 1 2 3 4 5 6 7 8 9 / Top 100 tabs
Categorías
Usuarios
usuario:
Darse de alta
password:
Artistas más visitados
Publicidad
TOP acordes y tablaturas de El Ultimo ke zierre


Escupiré Jodidos
de El Ultimo ke zierre
Puntúa este acorde/tab:      
(0.2/5)
Reportar este acorde/tab
  Añadir a tus favoritos
  Imprimir
Ahi les va el punteo de esta buena canción:

|-------------------------------------------------------------------------------|
|----------------------------------------------------------6/8-6p8p6-5-3--------|
|--5/7--5-5-4-5*----5-4p5p4--0-2-0---0-2---0-2-5-2-5-2-0-0---------------5-4-5*-|
|-------------------------------------------------------------------------------|
|-------------------------------------------------------------------------------|

El segundo solo es igual pero con este pedaso:

|------------------------------11p8------------------------------------------------|
|------13-13-13-13-16-13-13-13------11-8----11-8--11-8-8---------------------------|
|-5*-5/12-12-12-12-15-12-12-12-----------10b-------------10b-10*----8--------------|
|----------------------------------------------------------------10---10-8-10*-----|
|----------------------------------------------------------------------------------|
|----------------------------------------------------------------------------------|

*dejelo sonar
		   
AcordesyTabs.com © 2008 Acordes y Tablaturas para guitarra. Tabs and Chords for guitar. Aviso Legal - Contacto
El uso de este sitio está sujeto a la aceptación de los términos y condiciones (38 usuarios online)