tablaturas, partituras y acordes para guitarra
Busca por banda/artista:
 
y/o título de la canción:
A B C D E F G H I J K L M N O P Q R S T U V W X Y Z 0 1 2 3 4 5 6 7 8 9 / Top 100 tabs
Categorías
Usuarios
usuario:
Darse de alta
password:
Artistas más visitados
Publicidad
TOP acordes y tablaturas de La Firma


Estás en: Inicio > Letra L > Acordes y tablaturas de La Firma > La Llamada
La Llamada
de La Firma
Puntúa este acorde/tab:      
(0.7/5)
Reportar este acorde/tab
  Añadir a tus favoritos
  Imprimir
LA LLAMADA
e------------------
B------------------
G------------------
D------------------
A---2-3---2-3------
E-------3-----3----

          G                     Em              __
e-7-8---8/10-10-12-10-7---3-5-5/7-7-8--7-3--     |
B-8-10-10/12-12-13-12-8---5-7-7/8-8-10-8-5--     |
G-------------------------------------------     |
D-------------------------------------------     |
A-------------------------------------------     |
E-------------------------------------------     |
            C                     D               >    X2
e--8--10-10/12-12-10-12-10-8--8-8-5-5-3-5---     |
B--10-12-12/13-13-12-13-12-10-7-7-7-7-5-7---     |
G-------------------------------------------     |
D-------------------------------------------     |
A-------------------------------------------     |
E-------------------------------------------    _|
         C                      G
e---5-7-5-5-3-3-2-3---8--10-8--8--7-7-5-7--
B---7-8-7-7-5-5-3-5---10-12-10-10-8-8-7-8--
G------------------------------------------
D------------------------------------------
A------------------------------------------
E------------------------------------------

No se si por ahi anden los acordes pero los voy a mandar
un dia de estos jaja
tambien para rosa kity recuerdos de cuando tocaba en los buses jeje ;)
		   
AcordesyTabs.com © 2008 Acordes y Tablaturas para guitarra. Tabs and Chords for guitar. Aviso Legal - Contacto
El uso de este sitio está sujeto a la aceptación de los términos y condiciones (19 usuarios online)