tablaturas, partituras y acordes para guitarra
Busca por banda/artista:
 
y/o título de la canción:
A B C D E F G H I J K L M N O P Q R S T U V W X Y Z 0 1 2 3 4 5 6 7 8 9 / Top 100 tabs
Categorías
Usuarios
usuario:
Darse de alta
password:
Artistas más visitados
Publicidad
TOP acordes y tablaturas de la Ley
:: VI - la Ley


Estás en: Inicio > Letra l > Acordes y tablaturas de la Ley > La luna (unplugged)
La luna (unplugged)
de la Ley
Puntúa este acorde/tab:      
(0.3/5)
Reportar este acorde/tab
  Añadir a tus favoritos
  Imprimir
Esta cancion es de las que mas me gustan del nuevo disco
de La Ley
Dice asì:

Esto se repite durante casi toda la can ciòn

e-------------5-------------5--------------------5-----------------5----
B-------------5-------------5--------------------5-----------------5----
G-------------0-------------0---------------4------------------4--------
D---4----4--------4----4------------------5-------------------5---------
A-----5-------------5---------------------------------------------------
E--------------------------------------0--------------------0-----------
 
  Exepto donde dice:

 Y Su Amanecer, y su Atardecer ,su amanecer, mj m m m m...
e------------------12--
B------------------12--
G----------------------
D---------------9------
A------------10--------
E----------0-----------

Y el final dice asì:
e--12--------------
B----12------------
G-------0----------
D---------0--------
A------------9-----
E--------------10--

muchas grasias y mil disculpas solo que es mi primer tab

dedicada a toda la SEC 22 en especial a los de dibujo
		   
AcordesyTabs.com © 2008 Acordes y Tablaturas para guitarra. Tabs and Chords for guitar. Aviso Legal - Contacto
El uso de este sitio está sujeto a la aceptación de los términos y condiciones (44 usuarios online)