tablaturas, partituras y acordes para guitarra
Busca por banda/artista:
 
y/o título de la canción:
A B C D E F G H I J K L M N O P Q R S T U V W X Y Z 0 1 2 3 4 5 6 7 8 9 / Top 100 tabs
Categorías
Usuarios
usuario:
Darse de alta
password:
Artistas más visitados
Publicidad
TOP acordes y tablaturas de Eagles


Estás en: Inicio > Letra E > Acordes y tablaturas de Eagles > Heartache Tonight
Heartache Tonight
de Eagles
Puntúa este acorde/tab:      
(0.5/5)
Reportar este acorde/tab
  Añadir a tus favoritos
  Imprimir
Heartache tonight (Don Henley/Glenn Frey/Bob Seger/J.D Souther)

i was lisnen to this song and i thought that it needed to be a little more exact
for most of these chords its all power chords, it sounds better.

|-------------------------|
|-------------------------|
|-3-----5-----------------|
|-3-3-3-5-5-5~~~~~~~------|
|-1-3-3-3-5-5~~~~~~~------|
|---1-1---3-3~~~~~~~------|

(No chords)

somebody's gonna hurt some one, before the night is through
somebody's gonna come undun, theres nothing we can do
G                   Em            G                 Em
everybody wants to touch come body if it takes all night
G                   C                     G                D
everybody wants to take a little chance, make it come out right


theres gonna be a heartache tonight      heartache tonight i know
|-----------------------------------------------------------|
|-----------------------------------------------------------|
|-----------------------------------------------------------|
|-----------------5-5-7------5-5-7-------5-5-7-------5-5-7--|
|-----------------3-3-3------3-3-3-------3-3-3-------3-3-3--|
|-----------------------------------------------------------|

                   theres gonna be a heartache tonight   heartache tonight i kno
|--------------------------------------------------------------------------|
|--------------------------------------------------------------------------|
|--------------------------------------------------------------------------|
|------------------------------------5-5-7-----5-5-7------5-5-7-----5-5-7--|
|--5-5-7--5-5-7--5-5-7--5-5-7--------3-3-3-----3-3-3------3-3-3-----3-3-3--|
|--3-3-3--3-3-3--3-3-3--3-3-3----------------------------------------------|

|------------------------------------|
|------------------------------------|
|------------------------------------|
|--7-7-9--7-7-9--7-7-9--7-7-9--------|
|--5-5-5--5-5-5--5-5-5--5-5-5--------|
|------------------------------------|




some people like to stay out late

D|--5-5-5----5~~~~---2-2-2----2~~~~--|
A|--5-5-5----5~~~~---2-2-2----2~~~~--|
E|--3-3-3----3~~~~---0-0-0----0~~~~--|

some folks cant hold out that long

D|--5-5-5----5~~~~---2-2-2----2~~~~--|
A|--5-5-5----5~~~~---2-2-2----2~~~~--|
E|--3-3-3----3~~~~---0-0-0----0~~~~--|

but nobody wants to go home now

G|------------------5-5-5----5~~~~--|
D|--5-5-5----5~~~~--5-5-5----5~~~~--|
A|--5-5-5----5~~~~--3-3-3----3~~~~--|
E|--3-3-3----3~~~~------------------|


there's to much going on

G|------------------7-7-7----7~~~~--|
D|--5-5-5----5~~~~--7-7-7----7~~~~--|
A|--5-5-5----5~~~~--5-5-5----5~~~~--|
E|--3-3-3----3~~~~------------------|

and this night is gonna last for ever

G|------------------9-9-9----9~~~~--|
D|--5-5-5----5~~~~--9-9-9----9~~~~--|
A|--5-5-5----5~~~~--7-7-7----7~~~~--|
E|--3-3-3----3~~~~------------------|

last all last all summer long

G|------------------9-9-9----9~~~~--|
D|--5-5-5----5~~~~--9-9-9----9~~~~--|
A|--5-5-5----5~~~~--7-7-7----7~~~~--|
E|--3-3-3----3~~~~------------------|

and sometime when the sun comes up

G|------------------5-5-5----5~~~~--|
D|--5-5-5----5~~~~--5-5-5----5~~~~--|
A|--5-5-5----5~~~~--3-3-3----3~~~~--|
E|--3-3-3----3~~~~------------------|

the radio is gonna play that song

G|------------------7-7-7----7~~~~--|
D|--5-5-5----5~~~~--7-7-7----7~~~~--|
A|--5-5-5----5~~~~--5-5-5----5~~~~--|
E|--3-3-3----3~~~~------------------|

(Chorus)

                  G                      G
There's gonna be a heartache tonight, the moon's shining bright,
   C                      E
so turn out the light, and we'll get it right,
                   C                   C                  G
there's gonna be a heartache tonight, a heartache tonight I know.



then u do the intro 4 tims over solo (wich i dont have)

|-------------------------|
|-------------------------|
|-3-----5-----------------|
|-3-3-3-5-5-5~~~~~~~------|
|-1-3-3-3-5-5~~~~~~~------|
|---1-1---3-3~~~~~~~------| 4x

somebody's gonna hurt some one, before the night is through
somebody's gonna come undun, theres nothing we can do
G                   Em            G                 Em
everybody wants to touch come body if it takes all night
G                   C                     G                D
everybody wants to take a little chance, make it come out right

(chorus)

       G                              
We can beat around the bushes, we can get down to the bone,    
       C                            E
we can leave it in a parking lot but either way                
                   c                   C                   D       
there's gonna be a heartache tonight, a heartache tonight, I know.
              C                    C                   G
There'll be a heartache tonight, a heartache tonight, I know. 

|-------------------------|
|-------------------------|
|-3-----5-----------------|
|-3-3-3-5-5-5~~~~~~~------|
|-1-3-3-3-5-5~~~~~~~------|
|---1-1---3-3~~~~~~~------| 4x

well thats it, i think this is a little funner to play with the band, anyways ho
		   
AcordesyTabs.com © 2008 Acordes y Tablaturas para guitarra. Tabs and Chords for guitar. Aviso Legal - Contacto
El uso de este sitio está sujeto a la aceptación de los términos y condiciones (31 usuarios online)