tablaturas, partituras y acordes para guitarra
Busca por banda/artista:
 
y/o título de la canción:
A B C D E F G H I J K L M N O P Q R S T U V W X Y Z 0 1 2 3 4 5 6 7 8 9 / Top 100 tabs
Categorías
Usuarios
usuario:
Darse de alta
password:
Artistas más visitados
Publicidad
TOP acordes y tablaturas de Hamlet


Estás en: Inicio > Letra H > Acordes y tablaturas de Hamlet > Eso sí lo haces bien
Eso sí lo haces bien
de Hamlet
Puntúa este acorde/tab:      
(0.6/5)
Reportar este acorde/tab
  Añadir a tus favoritos
  Imprimir

NOTACION

h= hammer on
p= pull off
b= bend
s= slide
>= mantener el sonido
PM= palm muted (si va seguido de una línea de puntos hacerlo
hasta donde termine la línea de puntos)

------------------------------------------------------------
------------------------------------------------------------

AFINACION

Afinación en D (D,G,C,F,A,D): afina todas las cuerdas de la 
guitarra dos semitonos menos

------------------------------------------------------------
------------------------------------------------------------


-----
INTRO 
-----


----------------------------------------
----------------------------------------
---------------------------------------- (x4)
----------------------------------------
--5--5----------------------------------
--3--3--0-0--3s4--0-0--4s5--0-0--5s6p0--
        PM.       PM.       PM.


-------
VERSO 1
-------


1) (No voy a ocultar lo que todos saben ya)


Guitarra 1
----------

------------
------------
--5>s8--8>--
--5>s8--8>--
--3>s6--6>--
--3>s6--6>--


Guitarra 2 [Con efectos]
----------

--5>----6>--
--5>----6>--
------------
------------
------------
------------


2) 


Tocar lo mismo que en Intro


3) (Eres incapaz de tomarme en serio)


Guitarra 1
----------

----------
----------
--8>--5>--
--8>--5>--
--6>--3>--
--6>--3>--


Guitarra 2 [Con efectos]
----------

--6>---3>--
--6>---3>--
-----------
-----------
-----------
-----------


4) (Como a los demás)


Tocar lo mismo que en Intro


5) (Todo tú interés un sermón comercial)


Tocar lo mismo que en la parte 1) del Verso


6)


Guitarra 1
----------

Tocar lo mismo que en Intro


Guitarra 2 [Con efectos]
----------

--3-3-3-3-3-3-3-3-3-3-3-3-3-3-3-3--
-----------------------------------
-----------------------------------
-----------------------------------
-----------------------------------
-----------------------------------

--0-0-0-0-0-0-0-0-0-0-0-0-0-0-0-0--
-----------------------------------
-----------------------------------
-----------------------------------
-----------------------------------
-----------------------------------


7) (Dónde hay que firmar que no tienes huevos)


Guitarra 1
----------

----------
----------
--8>--5>--
--8>--5>--
--6>--3>--
--6>--3>--


Guitarra 2 [Con efectos]
----------

--0>------
------0>--
----------
----------
----------
----------

        
--------
CHORUS 1
--------


1) (Despreciar, promoter...)


Tocar lo mismo que en Intro


2) (Eso sí lo haces bien)


Guitarra 1
----------

-------------------------------------------
-------------------------------------------
-------------------------------------------
-------------------------------------------
--5--5-------------------------------------
--3--3--0-0--3s4--0-0--4s5--0-0--5s6--0-0--
        PM.       PM.       PM.       PM.

--------------------------------
--------------------------------
--------------------------------
--------------------------------
--------------------------------
--6s7--0-0--7s8--0-0--8s10>-s0--
       PM.       PM.


Guitarra 2 [Con efectos]
----------

---------------------------------------------------------
---------------------------------------------------------
--12-12-12-12-12-12-12-12-12-12-12-12-12-12-12-12--12s0--
---------------------------------------------------------
---------------------------------------------------------
---------------------------------------------------------


-------
VERSO 2
-------


1) (Párate a pensar, dime, ¿quién soy yo?, ¿qué me das?)


Tocar lo mismo que en la parte 1) del Verso


2)


Guitarra 1
----------

Tocar lo mismo que en Intro


Guitarra 2 [Con efectos]
----------

--------------------------------------------
--------------------------------------------
--------------------------------------------
--2>--2h3--2>--2--2--2p1--1--1--1--1--1--1--
--------------------------------------------
--------------------------------------------


3) (Si algo tengo hoy lo he ganado solo)


Tocar lo mismo que en la parte 3) del Verso 1


--------
CHORUS 2 (Despreciar, promoter...)
--------


Tocar lo mismo que en Intro


-----------
POST-CHORUS
-----------


1) (Bieeeeeeeen)


-------------------------------
-------------------------------
--------3--3----------5--4--5-- (x2)
--2>----3--3----2>----5--4--5--
--2>----1--1----2>----3--2--3--
--0>----1--1----0>----3--2--3--


2) (¡So!)


---------------------------------------
---------------------------------------
------------3--3--------------------5-- (x2)
--2---------3--3----2---------5--4--5--
--2---------1--1----2---------3--2--3--
--0--0-0-0--1--1----0--0-0-0--3--2--3--
     PM...             PM...


3) (Es mejor criticar que no...)


------
------
------
------
------
--2>--

--------------------------
--------------------------
--------------------------
--------------------------
--4--4--4--4--4--4--4--4--
--2--2--2--2--2--2--2--2--
  PM....................


----
SOLO
----


Guitarra 1
----------

Tocar lo mismo que en Intro


Guitarra 2 [Con efectos]
----------

--0--1--1--1--1p0--0--0--0--1--1--1--1h3--
--0---------------------------------------
------------------------------------------ (x4)
------------------------------------------
------------------------------------------
------------------------------------------

--3>----0>----3>----5----0--
--3>----0>----3>----5----0--
----------------------------
----------------------------
----------------------------
----------------------------

--------------------------
--3--5--3--0--7--3--0--7--
--------------------------
--------------------------
--------------------------
--------------------------
  PM....................


-------
VERSO 3
-------


1) (¿Ser un impostor te va a dar posición?)


Guitarra 1
----------

------------
------------
--5>s8--8>--
--5>s8--8>--
--3>s6--6>--
--3>s6--6>--


Guitarra 2 [Con efectos]
----------

--0b>--
-------
-------
-------
-------
-------


2) (Tienes que cambiar, te lo están pidiendo)


Tocar lo mismo que en la parte 3) del Verso 1


3)


-----------------------------------------------
-----------------------------------------------
-----------------------------------------------
--2--3--3--3--3--2--2--2--2--3--3--3--3--5--5--
-----------------------------------------------
-----------------------------------------------


-----
FINAL
-----


1) (Despreciar, prometer...)


Tocar lo mismo que en Intro


2)


------
------
------
------
------
--0>--


------------------------------------------------------------
------------------------------------------------------------
		   
AcordesyTabs.com © 2008 Acordes y Tablaturas para guitarra. Tabs and Chords for guitar. Aviso Legal - Contacto
El uso de este sitio está sujeto a la aceptación de los términos y condiciones (45 usuarios online)