tablaturas, partituras y acordes para guitarra
Busca por banda/artista:
 
y/o título de la canción:
A B C D E F G H I J K L M N O P Q R S T U V W X Y Z 0 1 2 3 4 5 6 7 8 9 / Top 100 tabs
Categorías
Usuarios
usuario:
Darse de alta
password:
Artistas más visitados
Publicidad
TOP acordes y tablaturas de Attaque 77


Espadas
de Attaque 77
Puntúa este acorde/tab:      
(0.6/5)
Reportar este acorde/tab
  Añadir a tus favoritos
  Imprimir
Intro: punteo 

1------------------------------------------------
2-----------8-7----------------------------------
3---------7----7~-7-7-7-7--5-5-5--4-4-4-1-1-3/2-2~
4--5555-5----------------------------------------
5------------------------------------------------
6------------------------------------------------

1-------------------
2-------8-7---9^-9~-
3-5~--7-----7-------
4------------------- después sigue C-D
5-------------------
6-------------------

G          A           C      Fill
Yo recuerdo aquellas noches
y también te recuerdo a vos
ese fue mi ultimo golpe
y también fue mi ultimo amor

G                D
yo te había jurado
   G
que ya no robaría 
     A             D      Em (o E5)
yo no quería terminar así
 G         A     F#        B
no llores nena no llores mas
  G                 D           Em
se que muy pronto me van a soltar 
        
y volveré a verte

 G        D           C
yo volveré a las calles 
se que mi barrio esperara
yo volveré a las calles 
hay un lugar para estar  con vos una ves mas

Inter:

1-----------------------------------------------
2-------8-7-------------------------------------
3---7--------7-7-7-7-7-5-5-5-5-4-4-4-1-1-3/2-2~-
4-5~---------------------------------------------
5-----------------------------------------------
6-----------------------------------------------

1--------------------
2-------8-7-------9^-
3-5~--7-----7--------
4--------------------
5--------------------
6--------------------

 G           A                C          Fill
aquí en mi celda estoy muy solo
solo hay lugar para soñar,soñar,soñar
sueños de espadas y serpientes
sueños de muerte y libertad
 G                 A
nunca olvide esa noche 
   F#             B
en ese hotel de flores 
 G              A       D       Em
fue aquella la ultima vez que vi
 G          D
no llores nena 
            E   
no llores mas 
 G              D            C
se que muy pronto me van a soltar

y volveré a verte

 G        D          C
yo volveré a las calles 
se que mi barrio esperara
yo volveré a las calles 
hay un lugar para estar
con vos una ves mas

solo
1-
2-2^-   En esta parte realizar rasgueo para abajo
3-3^-   tocando solamente para abajo,el ritmo es 
4-       4 negras y luego 3 corcheas
5-         (espero que se entienda)X2 VECES
6-

1---------7-6---7-6-----------7h8-0-9^-9~-
2-2/5-5-6----7-5----7-5-7h8(1)-------------
3-----------------------------------------
4-----------------------------------------
5------------------------------------------
6------------------------------------------

En donde dice (1) repetirlo h8 sin tocar en 
el traste 7




G       D     E       A
yo volveré a las calles 
se que mi barrio esperara
yo volveré a las calles 
hay un lugar para estar
con vos una ves mas

Al final si quieren hacer este riff queda lindo

A--5-3-1-3~-5
E-----------3


El fill es de esta forma 

D-0h3   Mientras se esta en C 
A-3--  
E----

Si quieren en donde dice A(en la 1estrofa y la 4ª)

D-5
A-5
E-2

^:bending        ~:vibrato

Dedikado para seba y a dani kosakov y pa todos
 los q me quieren aguante A77AQUE
		   
AcordesyTabs.com © 2008 Acordes y Tablaturas para guitarra. Tabs and Chords for guitar. Aviso Legal - Contacto
El uso de este sitio está sujeto a la aceptación de los términos y condiciones (33 usuarios online)