tablaturas, partituras y acordes para guitarra
Busca por banda/artista:
 
y/o título de la canción:
A B C D E F G H I J K L M N O P Q R S T U V W X Y Z 0 1 2 3 4 5 6 7 8 9 / Top 100 tabs
Categorías
Usuarios
usuario:
Darse de alta
password:
Artistas más visitados
Publicidad
TOP acordes y tablaturas de Carnaval de Cadiz


La Mascarada
de Carnaval de Cadiz
Puntúa este acorde/tab:      
(0.6/5)
Reportar este acorde/tab
  Añadir a tus favoritos
  Imprimir
Tango LA MASCARADA --- Año 1980

Transcripción para bandurria ( el * al lado de la nota, significa q va trineada )

** falseta **

6|--------------------------------------------------------------------------
5|--------------------------------------------------------------------------
4|--------------------------------------------------------------------------
3|--------------------------------------------------------------------------
2|-0000023*--33333-----------------------323---------33333------------------
1|----------------02*--02333-73222-320000---0000023*------25*--975*--732*---

6|--------------------------------------------------------------------------
5|--------------------------------------------------------------------------
4|--------------------------------------------------------------------------
3|--------------------------------------------------------------------------
2|----------3------3--320---------------------------------------------------
1|-02302302---2320--0-------------------------------------------------------

** tango **

6|--------------------------------------------------------------------------
5|--------------------------------------------------------------------------
4|--------------------------------------------------------------------------
3|--------------------------------------------------------------------------
2|--3--3-3-----3-----------23-2-2----2--23------4--4-4----------------------
1|-2-02-2-------222320---0*--0-0------00--032--2-02-2--27777553*-7775332*---

6|--------------------------------------------------------------------------
5|--------------------------------------------------------------------------
4|--------------------------------------------------------------------------
3|--------------------------------------------------------------------------
2|-----3-----23--320---3323--------23---3323--------------------------------
1|-7772-20-----02----------00---000--032----00---00002355*--223266*---------
             
                                 acordes      acordes   
6|----------------------------|-----------|------------|--------------------
5|----------------------------|---3---2---|------------|--------------------
4|----------------------------|----2---3--|------------|--------------------
3|----------------------------|-----------|---------4--|--------------------
2|-----------------------320--|-----------|----4---2---|--------------------
1|--223277*--779762--3220-----|-----------|---2--------|--------------------

6|--------------------------------------------------------------------------
5|--------------------------------------------------------------------------
4|--------------------------------------------------------------------------
3|--------------------------------------------------------------------------
2|-------------------------------------23-----------------------------------
1|-02764242--555559754-0233976753232000--02*--023397672--767969767----------


** dedicado a mis amigas cristina, y rocio **
		   
AcordesyTabs.com © 2008 Acordes y Tablaturas para guitarra. Tabs and Chords for guitar. Aviso Legal - Contacto
El uso de este sitio está sujeto a la aceptación de los términos y condiciones (15 usuarios online)