tablaturas, partituras y acordes para guitarra
Busca por banda/artista:
 
y/o título de la canción:
A B C D E F G H I J K L M N O P Q R S T U V W X Y Z 0 1 2 3 4 5 6 7 8 9 / Top 100 tabs
Categorías
Usuarios
usuario:
Darse de alta
password:
Artistas más visitados
Publicidad
TOP acordes y tablaturas de Eagles


Estás en: Inicio > Letra E > Acordes y tablaturas de Eagles > I Can Not Tell You Why
I Can Not Tell You Why
de Eagles
Puntúa este acorde/tab:      
(0.4/5)
Reportar este acorde/tab
  Añadir a tus favoritos
  Imprimir
The Eagles
I Can't Tell You Why


Intro:
Bm  A
Bm  A
Bm  A
Bm  A


Verse 1:
Dmaj7                        Gmaj7
Look at us baby up all night tearing our love apart
Dmaj7                                           Gmaj7             F#7
Aren't we the same two people who lived through years in the dark?


Chorus:
Bm                  A         Gmaj7                    F#7
Every time I try to walk away something makes me turn around and stay
Bm                   A             
And I can't tell you why


Break:
|------------|-7--5-|
|------------|-7--5-|
|------------|-7--6-|
|------------|------|
|--------7---|------|
|-7-9-10---7-|------|


Verse 2:
Dmaj7                                 Gmaj7
When we get crazy it just ain't right girl I get lonely too
Dmaj7                                      Gmaj7  F#7 
You don't have to worry just hold on tight 'cause I love you.


Chorus:
Bm                        A         Gmaj7                     F#7
Nothing's wrong as far as I can see we make it harder then it has to be
    Bm               A
And I can't tell you why 
        Gmaj7        F#7
no baby I can't tell you why
    Bm               A
And I can't tell you why


Solo:
|------------|-7-7-5-|------------|-7-7-5-----------|------------------------|
|------------|-7-7-5-|------------|-7-7-5-----------|------------------------|
|------------|-7-7-6-|------------|-7-7-6-----------|------------------------|
|------------|-9-9-7-|------------|-9-9-7-----------|-7h9p7h9----------------|
|--------7---|-9-9-7-|--------7---|-9-9-7--------7-9|---------7h9-9/5-7------|
|-7-9-10---7-|-7-7-5-|-7-9-10---7-|-7-7-5-7-9-10----|--------------------5-7-|

|---------------------------------------|-------------------------------|
|-----------/12-12p10-------------------|--/12-12p10--------------------|
|---------7------------11-11---11--9--7-|-------------11-11---11--9--7--|
|-----7-9-------------------------------|-------------------------------|
|-7h9-----------------------------------|-------------------------------|
|---------------------------------------|-------------------------------|

|-----10---------------|-----------------------|
|-/12----12p10---------|-----------------------|
|--------------11-9-7--|---7-9b-9b-9br-9p7-----|
|----------------------|-9------------------9--|
|----------------------|-----------------------|
|----------------------|-----------------------|


Verse 3:
Bm                 A          Gmaj7                     F#7
Everytime I try to walk away, something makes me turn around and stay
    Bm               A
And I can't tell you why 
        Gmaj7        F#7
no baby I can't tell you why
    Bm               A
And I can't tell you why
    Bm               A
And I can't tell you why


Solo:
|-------------------|--------------------|----------------|
|-------------------|--------------------|------------/12-|
|---------7-9/11-7--|---------7-9/11-7---|--------7-9-----|
|-----7h9-----------|-----7h9------------|-----7h9--------|
|-7h9---------------|-7h9----------------|-7h9------------|
|-------------------|--------------------|----------------|


|------------------|----------------------------|-----10b----------------|
|------------------|----------------------------|--------10-12-12--10-12-|
|-7-7h9-7-7-9/11---|---7/12-12-7-7h9-7-7-9/11---|---7--------------------|
|----------------7-|-9------------------------7-|-9----------------------|
|------------------|----------------------------|------------------------|
|------------------|----------------------------|------------------------|

|-10b---------------10b-----------------12b-12b----|-------10b----------------|
|----10-12-12--10-12----10-12-12--10-12---------10-|-10-12----10-12-12--10-12-|
|--------------------------------------------------|--------------------------|
|--------------------------------------------------|--------------------------|
|--------------------------------------------------|--------------------------|
|--------------------------------------------------|--------------------------|

|-10b---------------10b-10b---10b-10b---10b-10b--------------|------------|
|----10-12-12--10-12--------10--------10--------12-10h12-10-|------------|
|------------------------------------------------------------|-7-9-7------|
|------------------------------------------------------------|-------9b-7-|
|------------------------------------------------------------|------------|
|------------------------------------------------------------|------------|

|----------------|--------------|---------------|---------------------------|
|-------------10-|--------------|------------10-|----------------------8p7--|
|-7-9-7----------|-7-9-7--------|-7-9-7---------|-5/7-7/97----5/7-7h9-7--7-|
|-------9b-------|-------9b---7-|-------9b------|-5/7-7/97----5/7-7h9----7-|
|----------------|--------------|---------------|---------------------------|
|----------------|--------------|---------------|---------------------------|

|--------------------------|--------------------------|
|--------------------8p7---|--------------------8p7---|
|-5/7-7/97--5/7-7h9-7--7--|-5/7-7/97--5/7-7h9-7---7-|
|-5/7-7/97--5/7-7h9----7--|-5/7-7/97--5/7-7h9-----7-|
|--------------------------|--------------------------|
|--------------------------|--------------------------|




Dmaj7 Gmaj7    F#7
 202
 232
 243
 052
 054
 xx2




Yost with the Most
		   
AcordesyTabs.com © 2008 Acordes y Tablaturas para guitarra. Tabs and Chords for guitar. Aviso Legal - Contacto
El uso de este sitio está sujeto a la aceptación de los términos y condiciones (14 usuarios online)