tablaturas, partituras y acordes para guitarra
Busca por banda/artista:
 
y/o título de la canción:
A B C D E F G H I J K L M N O P Q R S T U V W X Y Z 0 1 2 3 4 5 6 7 8 9 / Top 100 tabs
Categorías
Usuarios
usuario:
Darse de alta
password:
Artistas más visitados
Publicidad
TOP acordes y tablaturas de Silvio Rodriguez


la Maza
de Silvio Rodriguez
Puntúa este acorde/tab:      
(0.7/5)
Reportar este acorde/tab
  Añadir a tus favoritos
  Imprimir
INTRO.

     Am          E/G#              G              D/F#
e|-----2-----------------0--------------------------------0----------|
b|-------------------3-----(3)---------3--------------3-----(3)------|
g|--(2)--2-1-0-----4---4------(4)----0---0----------2---2------(2)---|
D|-----------------------------------------4-3-----------------------|
A|-0-----------------------------------------------------------------|
E|---------------4-----------------3--------------2------------------|

  Am/F          Em                  F#      D/F#   Em
e|-------------------1h0---------------------0----------1h0----------|
b|-----1------------0----0---0---------3-----3----------------3------|
g|---2-------------0-------0---------2---2---2--------0-------2------|
D|-------3-2-0----2------------2-------------0------2----------------|
A|-------------------------------------------x-----------------------|
E|-1------------0-------------------2--------2-----0----------1------|

     Am          E/G#              G              D/F#
e|-----2-----------------0--------------------------------0----------|
b|-------------------3------3----------3--------------3------3-------|
g|--(2)--2-1-0-----4---4-------4-----0---0----------2---2-------2----|
D|-----------------------------------------4-3-----------------------|
A|-0-----------------------------------------------------------------|
E|---------------4-----------------3--------------2------------------|

  Am/F          Em                  F#      D/F#   Em
e|-------------------1h0---------------------0-------1h0-------------|
b|-----1------------0----0---0---------3-----3-------------3---------|
g|---2-------------0-------0---------2---2---2-----0-------2---------|
D|-------3-2-0----2------------2-------------0---2-------------------|
A|-------------------------------------------x-----------------------|
E|-1------------0-------------------2--------2--0----------1---------|

   Am        D/F   Am            Am        G    F     Em
e|------1h0-----------0-1-----0-------0---------------------1h0------|
b|-----------3-------1----1---------1-----------------------------3--|
g|----0------2------2-------2-----2-----2----0----0-------0-------2--|
D|--2---------------------------------------------------2------------|
A|----------------0--------------0-----------------------------------|
E|-0---------1-----------------------------3----1-----0-----------1--|

    Am
e|-----0---0---0-------0---0--0---------0---0--0--------0---0---0----|
b|-----------1—(1)----------1—(1)-------------1-(1)-----------1—(1)--|
g|---2---2-----------2---2------------2---2-----------2---2----------|
D|-------------------------------------------------------------------|
A|-0---------------0----------------0---------------0----------------|
E|-------------------------------------------------------------------|

   Am                  E/G#                 G
e|-----0---0---0---------------0-----0--------------0----------------|
b|-----------1—-(1)--------3-----4--------------3-------3------------|
g|---2---2---------------4---4-----3---4------0---0---0---0----------|
D|-------------------------------------------------------------------|
A|-0-----------------------------------------------------------------|
E|---------------------4--------------------3------------------------|
Si no creyera en la locura                 de la garganta del sin - -


   D/F#                 Am/F                    Em
e|---------0--------------------0--------------------1h0-----------|
b|-----3------3----3--------1--------1---1----------0----0---0-----|
g|---2---2-------2---2----2---2----2---2-----------0-------0-------|
D|------------------------------------------------2------------2---|
A|-----------------------------------------------------------------|
E|-2--------------------1-----------------------0------------------|
--sonte                 si no creyera que en el monte


   D/F#    D/F#              Em
e|----------0---------------------1h0-------------|
b|----3-----3---------------------------3---------|
g|--2---2---2-------------------0-------2---------|
D|----------0-----------------2-------------------|
A|----------x-------------------------------------|
E|-2--------2----------------0----------1---------|
   se esconde el trino y la pavura.

   Am                  E/G#                 G
e|-----0---0---0---------------0-----0--------------0----------------|
b|-----------1—-(1)--------3-----4--------------3-------3------------|
g|---2---2---------------4---4-----3---4------0---0---0---0----------|
D|-------------------------------------------------------------------|
A|-0-----------------------------------------------------------------|
E|---------------------4--------------------3------------------------|
  Si no creyera en la balanza               en la razón del equi- - -

   D/F#                 Am/F                    Em
e|---------0---------------------0--------------------1h0-----------|
b|-----3------3----3---------1--------1---1----------0----0---0-----|
g|---2---2-------2---2-----2---2----2---2-----------0-------0-------|
D|-------------------------------------------------2------------2---|
A|------------------------------------------------------------------|
E|-2---------------------1-----------------------0------------------|
--librio                 si no creyera en el delirio

   D/F#    D/F#         Em
e|----------0----------------1h0-------------|
b|----3-----3----------------------3---------|
g|--2---2---2--------------0-------2---------|
D|----------0------------2-------------------|
A|----------x--------------------------------|
E|-2--------2-----------0----------1---------|
   si no creyera en la esperanza.


   Am                  E/G#                 G
e|-----0---0---0-----------------0-----0--------------6------------|
b|-----------1—-(1)----------3-----4--------------3-------3--------|
g|---2---2-----------------4---4-----3---4------0---0---0---0------|
D|-----------------------------------------------------------------|
A|-0---------------------------------------------------------------|
E|-----------------------4--------------------3--------------------|
Si no creyera en lo que agencio            si no creyera en mi cami- -


   D/F#                 Am/F                    Em
e|---------0---------------------0--------------------1h0-----------|
b|-----3------3----3---------1--------1---1----------0----0---0-----|
g|---2---2-------2---2-----2---2----2---2-----------0-------0-------|
D|-------------------------------------------------2------------2---|
A|------------------------------------------------------------------|
E|-2---------------------1-----------------------0------------------|
- no                     si no creyera en mi sonido

   D/F#     D/F#  Em      D/F   Em          D/F   Em        D/F
e|----------0-------1h0------------1h0--------------1h0--------------|
b|----3-----3-------------3-----------------3---------------3--------|
g|--2---2---2-----0-------2-------0---------2------0--------2--------|
D|----------0---2----------------2----------------2------------------|
A|----------x--------------------------------------------------------|
E|-2--------2--0----------1-----0-----------1-----0---------1--------|
  si no creyera en mi silencio.   Que cosa fuera   Que cosa fuera la

Am
maza sin cantera
    G       F       E             Dm6   E
un amasijo hecho de cuerdas y tendones
        Dm6     Am
un revoltijo de carne con madera
         G     F     E             Dm6  E
un instrumento sin mejores resplandores
         Dm6     Am
que lucecitas montadas para escena
         G      F    E             Dm6 Fdim/E Dm6  EMPIEZA EL RASGUEO
que cosa fuera  corazón  que cosa fuera
                  Am
que cosa fuera la maza sin cantera
         G    F      Bdim          Dm6    Fdim/E  Dm6
un testaferro del traidor de los aplausos
                 Am
un servidor de pasado en copa nueva
       G     F    Bdim       Dm6   Fdim/E  Dm6
un eternizador de dioses del ocaso
                   Am
jubilo hervido con trapo y lentejuela
           G     F   E            Dm6   Fdim/E  Dm6
que cosa fuera  corazón  que cosa fuera
                  Am
que cosa fuera la maza sin cantera
           G     F   Bdim         Dm6   Fdim/E  Dm6
que cosa fuera  corazón  que cosa fuera
   Am
la maza sin cantera.

G  F  Fdim/E  Dm6  Fdim/E  Dm6  Am  Dm/A  G F Fdim/E Dm6

AQUI SE VA CON PIANO PERO LE PODEMOS PONER EL PUNTEO
QUE ESTÁBAMOS LLEVANDO.

e|-----0---0---0-----------------0-----0--------------0------------|
b|-----------1—-(1)----------3-----4--------------3-------3--------|
g|---2---2-----------------4---4-----3---4------0---0---0---0------|
D|-----------------------------------------------------------------|
A|-0---------------------------------------------------------------|
E|-----------------------4--------------------3--------------------|
Si no creyera en lo mas duro                si no creyera en el des-

e|---------0---------------------0--------------------1h0-----------|
b|-----3------3----3---------1--------1---1----------0----0---0-----|
g|---2---2-------2---2-----2---2----2---2-----------0-------0-------|
D|-------------------------------------------------2------------2---|
A|------------------------------------------------------------------|
E|-2---------------------1-----------------------0------------------|
- eo                     si no creyera en lo que creo

e|----------0-------1h0-------------|
b|----3-----3-------------3---------|
g|--2---2---2-----0-------2---------|
D|----------0---2-------------------|
A|----------x-----------------------|
E|-2--------2--0----------1---------|
   si no creyera en algo puro.

e|-----0---0---0--------------0-----0-----------0------------|
b|-----------1—-(1)-------3-----4-----------3-------3--------|
g|---2---2--------------4---4-----3---4---0---0---0---0------|
D|-----------------------------------------------------------|
A|-0---------------------------------------------------------|
E|--------------------4-----------------3--------------------|
Si no creyera en cada herida             si no creyera en la que

e|---------0---------------------0--------------------1h0-----------|
b|-----3------3----3---------1--------1---1----------0----0---0-----|
g|---2---2-------2---2-----2---2----2---2-----------0-------0-------|
D|-------------------------------------------------2------------2---|
A|------------------------------------------------------------------|
E|-2---------------------1-----------------------0------------------|
   ronde              si no creyera en lo que esconde

e|----------0-------1h0-------------|
b|----3-----3-------------3---------|
g|--2---2---2-----0-------2---------|
D|----------0---2-------------------|
A|----------x-----------------------|
E|-2--------2--0----------1---------|
   hacerse hermano de la vida.

e|-----0---0---0------------------0-----0-----------0------------|
b|-----------1—-(1)-----------3-----4-----------3-------3--------|
g|---2---2------------------4---4-----3---4---0---0---0---0------|
D|---------------------------------------------------------------|
A|-0-------------------------------------------------------------|
E|------------------------4-----------------3--------------------|
Si no creyera en quien me escucha si no creyera en lo que


e|---------0---------------------0--------------------1h0-----------|
b|-----3------3----3---------1--------1---1----------0----0---0-----|
g|---2---2-------2---2-----2---2----2---2-----------0-------0-------|
D|-------------------------------------------------2------------2---|
A|------------------------------------------------------------------|
E|-2---------------------1-----------------------0------------------|
   duele                 si no creyera en lo que quede

e|----------0-------1h0---------|
b|----3-----3-------------3-----|
g|--2---2---2-----0-------2-----|
D|----------0---2---------------|
A|----------x-------------------|
E|-2--------2--0----------1-----|
  si no creyera en lo que lucha.

E        Bdim   E        Bdim     Am
Que cosa fuera, que cosa fuera la maza sin cantera
    G       F       E             Dm6   Fdim/E
un amasijo hecho de cuerdas y tendones
        Dm6     Am
un revoltijo de carne con madera
         G     F     E             Dm6  Fdim/E
un instrumento sin mejores resplandores

         Dm6     Am
que lucecitas montadas para escena
         G      F    E             Dm6 Fdim/E Dm6
                  Am
que cosa fuera la maza sin cantera
         G    F      Bdim          Dm6    Fdim/E  Dm6
un testaferro del traidor de los aplausos
                 Am
un servidor de pasado en copa nueva
       G     F    Bdim       Dm6   Fdim/E  Dm6
un eternizador de dioses del ocaso
                   Am
jubilo hervido con trapo y lentejuela
           G     F   E            Dm6   Fdim/E  Dm6
que cosa fuera  corazón  que cosa fuera
                  Am
que cosa fuera la maza sin cantera
           G     F   Bdim         Dm6   Fdim/E  Dm6
que cosa fuera  corazón  que cosa fuera
                  Am                G  F  E  Dm6
Que cosa fuera la maza sin cantera.

		E A D g b e
Am		0 0 2 2 1 0
E/G#		4 X X 4 5 0
G		3 2 0 0 3 3   3 5 5 4 3 3
D/F#		2 X 0 2 3 0
Am/F		1 X 0 2 1 0
Em 		0 2 2 0 0 0
Bdim		0 2 3 1 3 X
Dm6		X 2 3 2 3 X
Fdim/E		X 2 2 1 0 1
F		1 3 3 2 1 1
Dm/A		X 2 0 2 3 1
DUDAS Y/O COMENTARIOS POR FAVOR ESCRIBIR A alfa_omega22@hotmail.com
GRACIAS.
		   
AcordesyTabs.com © 2008 Acordes y Tablaturas para guitarra. Tabs and Chords for guitar. Aviso Legal - Contacto
El uso de este sitio está sujeto a la aceptación de los términos y condiciones (17 usuarios online)