tablaturas, partituras y acordes para guitarra
Busca por banda/artista:
 
y/o título de la canción:
A B C D E F G H I J K L M N O P Q R S T U V W X Y Z 0 1 2 3 4 5 6 7 8 9 / Top 100 tabs
Categorías
Usuarios
usuario:
Darse de alta
password:
Artistas más visitados
Publicidad
TOP acordes y tablaturas de Eagles


Estás en: Inicio > Letra E > Acordes y tablaturas de Eagles > Learn To Be Still
Learn To Be Still
de Eagles
Puntúa este acorde/tab:      
(0.6/5)
Reportar este acorde/tab
  Añadir a tus favoritos
  Imprimir
Intro:
   E A E A E A B

   The acoustic guitars play the first E-A, then an electric comes in and plays E-A, then another
electric comes in and plays the following intro riff:

e:------------|           
B:-----------0|
G:---------2--|
D:---4---2----|
A:-2----------|
E:------------|


Sometimes the electric plays this:

      H
e:--------------|
B:----0-2------0|
G:-2---------2--|
D:---------2----|
A:--------------|
E:--------------|

Then the verse starts.  The progression over the verse is as follows:

Verse 1:
E Just another day in paAradise
C#m7 As you stumble to your beBd.
E You'd give anything to silenceA
C#m7 Those voices ringin' in your Bhead.

C#m7 You thought you could find happiAness
C#m7 Just over that green Ahill.
C#m7 You thought you would be G#m7satisfied,
A But you never wBill...learn to be stiEll.

E A E A

Verse 2:
We are like sheep without a shepherd
Who don't know how to be alone.
So we wander 'round this desert
Wind up following the wrong Gods home.

But the flock cries out for another,
And we keep answering that bell.
One more starry-eyed Messiah
Meets a violent farewell...learn to be still

E A E A E A E A

Bridge:
B Now the flowers in your Agarden
B They don't smell so sweet A so sweet
B Maybe you've forgotten C#m7 the Heaven lyin' at your B feet.  Yeah Yeah Yeah.

Then the solo comes in, and it looks something like this.  The chords over the solo are E
for 2 measures, A for 2 measures.  This is done twice under the solo.

                            H P                H           H         H
e:---------------------------------------------------------------------------|
B:-----------9/119----------------------------------------------------------|
G:-----------9/119-----------------2/4----------------------------4-6--4--|
D:----7-9-11----------------4-6-4---2/4-2----------------6-9--9-6---------6|
A:7-9------------------2-2--------4---------4--2-4----7-7--------------------|
E:---------------------------------------------------------------------------|


e:----------------------------|
B:----------------------------|
G:------9/11-9----------------|
D:-4-----------7-9/11-9-------|
A:---7------------------11-9-7|
E:----------------------------|


Then back to the verse

Verse 3:
There are so many contradictions
In all these messages we send. (we keep askin')
How do I get outta here?
Where do I fit in?

And though the world is torn and shakin',
Even if my heart is breakin',
It's waiting for you to awaken
And someday you will...learn to be still.

Outro:
E A E A E A E A
Keep on runnin'
Just keep on runnin'
Yeah.


That's about it.  I hope I included everything, and I hope everyone enjoys playing it.
Please send comments, peeves, corrections, an electric guitar (please!), or any type of
guitar talk to:

          des24@cornell.edu
          Dan Smith
		   
AcordesyTabs.com © 2008 Acordes y Tablaturas para guitarra. Tabs and Chords for guitar. Aviso Legal - Contacto
El uso de este sitio está sujeto a la aceptación de los términos y condiciones (22 usuarios online)