tablaturas, partituras y acordes para guitarra
Busca por banda/artista:
 
y/o título de la canción:
A B C D E F G H I J K L M N O P Q R S T U V W X Y Z 0 1 2 3 4 5 6 7 8 9 / Top 100 tabs
Categorías
Usuarios
usuario:
Darse de alta
password:
Artistas más visitados
Publicidad
TOP acordes y tablaturas de Eagles


Estás en: Inicio > Letra E > Acordes y tablaturas de Eagles > Life In The Fast Lane Intro
Life In The Fast Lane Intro
de Eagles
Puntúa este acorde/tab:      
(0.6/5)
Reportar este acorde/tab
  Añadir a tus favoritos
  Imprimir
LIFE IN THE FAST LANE-eagles

the stars below the slides means grace note, just slide it fast as
soon as you pick the first note

--------------------------------------------------
--------------------------------------------------
--------------------------------------------------
-----7---5----------------------7---5-------------
-5h7---7---7-5--------------5h7---7---7-5---------
---------------75-3b-0-rest---------------75-3b-
                *                           *  
                    ^                           ^
                    slight bend                 big bend


---------------------------------------------
---------------------------------------------
---------------------------------------------
-----7---5------------------7---5------------
-5h7---7---7-5----------5-7---7---7-5--------
---------------75-3b-0---------------7/5-3b-
                *                      *  
                    ^                      ^
                    slight bend            big bend

  thanks a lot to my guitar teatcher, kirk, who tabbed this for me,
we're going to work on the rest of the song now, so keep checking 
for it.


		   
AcordesyTabs.com © 2008 Acordes y Tablaturas para guitarra. Tabs and Chords for guitar. Aviso Legal - Contacto
El uso de este sitio está sujeto a la aceptación de los términos y condiciones (26 usuarios online)