tablaturas, partituras y acordes para guitarra
Busca por banda/artista:
 
y/o título de la canción:
A B C D E F G H I J K L M N O P Q R S T U V W X Y Z 0 1 2 3 4 5 6 7 8 9 / Top 100 tabs
Categorías
Usuarios
usuario:
Darse de alta
password:
Artistas más visitados
Publicidad
TOP acordes y tablaturas de Eagles


Estás en: Inicio > Letra E > Acordes y tablaturas de Eagles > Take It Easy
Take It Easy
de Eagles
Puntúa este acorde/tab:      
(0.4/5)
Reportar este acorde/tab
  Añadir a tus favoritos
  Imprimir
Take It Easy (Glenn Frey and Jackson Browne)
From “EAGLES”. 1972.

INTRO:  G - C/G – D7sus4 - G - C/G – D7sus4

   G
e---------------|------------------------|
B--3-----3-----3|------------------------|
G--2<4---2<4---2|<4<2---0----------------|
D---------------|-----------2p0----------|
A---------------|----------------1p0-----|
E---------------|----------------------3-|
    Well I'm...

         G        C/G       G
Well I'm runnin' down the road try'n' to loosen my load
                     D      C
I've got seven women on my mind
    G                      D
Four that wanna own me, two that wanna stone me,
(D6)C                          G
One says she's a friend of mine

         Em            C G
Take it easy, take it easy
               Am               C                  Em     Em7
Don't let the sound of your own wheels drive you crazy
          C                   G
Lighten up while you still can
           C        G C G
Don't even try to understand,
            Am                      C
Just find a place to make your stand
              G G6 G7 G G6 G7 G
An' take it eas_______y

      G6 G7  G         G6    G7     G
e---------------|------------------------|
B--3-----3-----3|----3-------------------|
G--2<4---2<4---2|<4--2p0-----------------|
D---------------|----------2p0-----------|
A---------------|----------------0<˝-----|
E---------------|----------------------3-|
   Well I'm

     G                                                            D        C
Well I'm standin' on a corner in Winslow, Arizona an' such a fine sight to see
     G                                     C                      G/B Am7 G
It's girl my Lord, in a flat bed Ford slowin' down to take a look at      me

        Em  D           G  C   G
Come on baby, don't say maybe
        Am                 C             Em       Em7
I gotta know if your sweet love is gonna save me
       G   C          G
We may lose and we may win
          C                     G
Though we will never be here again,
        Am              C
So open up I'm climbin' in
             G G6 G7 G6 G6 G7 G6
So take it easy________y
[Guitar solo]

        G                                                            D7      C
e------|---3-3---3--3--3-3-3--3-3-|------3--3-3------------|-------------------|
B------|---3-3---3--3--3-3-3--3-3h|5-----3--3-3-—32-0-0-0-|-13--3--31---1---|
G----2/|4------4------------------|---4----------43-0-0-0-|-24--4--42-0-2-0-|
D------|--------------------------|------------------------|-------------------|
A------|--------------------------|------------------------|-------------------|
E------|--------------------------|------------------------|-------------------|

                         G                         D                      (G)
e-----------------------|-------------------------|--------------------------|
B----------1-------1--1/|3--3---------31--0------|---10-------------------0/|
G----------0-------0--2/|4-----4~~~~--42--0—---0/|11----11~~~~-119 7----(7)|
D---0-0-2-------2-------|-------------------------|-----------------(7)------|
A-----------------------|-------------------------|--------------------------|
E-----------------------|-------------------------|--------------------------|

   C                  G                             Em
e----------------------|-----------------------(10)/12-|-12--12-12-10p12-12-10h|
B----8-----10<12-10<12-|-10<12-10<12-10<12-10-8-10-/12-|-12--12-12-10p12-12-10h|
G-/9-----9-------------|-------------------------------|-----------------------|
D----------------------|-------------------------------|-----------------------|
A----------------------|-------------------------------|-----------------------|
E----------------------|-------------------------------|-----------------------|

       D                   (G)  C                        G
e--h12-10---------------------|------------------------|-10---------------------
B--h12-10--10-------(10)------|--------8--10--8---10<12|----(10)<12-10<12<10p8(8
G-----------9<11<9-----7------|-7/8/9-(9)-(9)(9)-------|------------------------
D--------------------------9--|------------------------|------------------------
A-----------------------------|------------------------|------------------------
E-----------------------------|------------------------|------------------------

    Am                             C
e----------7--8----7--5---------|----------------------------------------|
B---8h10------------------8-----|----8------8-----8-------------5--------|
G-------------------------7<9---|-------(7)<9—(7)<9---7p5-------5--------|
D-------------------------------|---------------------------7---------7--|
A-------------------------------|----------------------------------------|
E-------------------------------|----------------------------------------|

    Em                                     D         ~~~~~~~~~~~~~~~~~~~~
e---10-----10-----10-----10-----|--10------14-----(14)-------------------|
B--10<12---10<12--10<12--10<12--|--10-----13<15---(13)-------------------|
G--11<12---11<12--11<12--11<12--|--11------------------------------------|
D-------------------------------|----------------------------------------|
A-------------------------------|----------------------------------------|
E-------------------------------|----------------------------------------|
     Well I'm...

         G
Well I'm runnin' down the road try'n' to loosen my load
                       D     Am
Got a world of trouble on my mind
   G                    D
Lookin' for a lover who won't blow my cover
      C             G
She's so hard to find

        Em           (G)C G
Take it easy, take it eas__y
              Am                C               Em    Em7
Don't let the sound of your own wheels make you crazy
        C   G           C  G
Come on baby, don't say maybe
        Am                 C             G
I gotta know if your sweet love is gonna save me

OUTRO: C – G - C – G - C

              G  G9 C                      G  G9 C   Em
Oh, we got it eas___y, we ought to take it eas___y.





By Charlie "Eagle" Delgado
charlie_eagle7@hotmail.com
		   
AcordesyTabs.com © 2008 Acordes y Tablaturas para guitarra. Tabs and Chords for guitar. Aviso Legal - Contacto
El uso de este sitio está sujeto a la aceptación de los términos y condiciones (22 usuarios online)