tablaturas, partituras y acordes para guitarra
Busca por banda/artista:
 
y/o título de la canción:
A B C D E F G H I J K L M N O P Q R S T U V W X Y Z 0 1 2 3 4 5 6 7 8 9 / Top 100 tabs
Categorías
Usuarios
usuario:
Darse de alta
password:
Artistas más visitados
Publicidad
TOP acordes y tablaturas de Eagles


Estás en: Inicio > Letra E > Acordes y tablaturas de Eagles > Tequila Sunrise 1
Tequila Sunrise 1
de Eagles
Puntúa este acorde/tab:      
(0.4/5)
Reportar este acorde/tab
  Añadir a tus favoritos
  Imprimir
The Eagles
Tequila Sunrise

Intro:
|--3---3--------------------|
|--0---0--------------------|
|--0---0--------------------|
|--0--h2--------------------|
|--2*--0--------------------|
|--3---3--------------------|

G G G G 

Am D7 G G


Verse:
G      
It's another tequila sunrise
D                         Am  D7         G
 Starin' slowly 'cross the sky,  said goodbye
G  
 He was just a hired hand
D                                  Am  D7            G
 Workin on the dreams he planned to try,  the days go by


Bridge:
Em                    C 
 Every night when the sun goes down
Em            C             Em
 Just another lonely boy in town
     Am                D7
 And she's out runnin' round


Verse:
G
 She wasn't just another woman
D                                Am D7             G
 And I couldn't keep from comin' on,  it's been so long
G
 Oh and it's a hollow feelin'
D                              Am      D7         G
 When it comes down to dealin' friends,  it never ends


Solo:
e|-7-7-7---8----10-10-10-10-10---12--10--8---7----5-5-5-5-|-8--7--5----0------|
B|-8-8-8---10---12-12-12-12-12---13--12--10--8----7-7-7-7-|-10-8--7----8------|
G|-0-0-0---0----0--0--0--0--0----0---0---0---0----7-7-7-7-|-0--0--7----5------|
D|--------------------------------------------------------|------------7------|
A|--------------------------------------------------------|-------------------|
E|--------------------------------------------------------|-------------------|

e|--0-------2--2----------------------------------------|
B|--1-----1----1-----------------------7-7-7-8---7-5-3--|
G|--2---2------2---0h2h4-2-0-2-0-------7-7-7-9---7-5-4--|
D|--2-2--------0---------------------------------7-5-4--|
A|------------------------------------------------------|
E|------------------------------------------------------|


Bridge:
Am            D   
 Take another shot of courage
Bm              E                 Am   B              Em7   A
 Wonder why the right words never come,  you just get numb


Verse:
G
 It's another tequila sunrise
D                               Am   D7        G
 This old world still looks the same,  another frame


Outro:G

End on G




Yost with the Most
		   
AcordesyTabs.com © 2008 Acordes y Tablaturas para guitarra. Tabs and Chords for guitar. Aviso Legal - Contacto
El uso de este sitio está sujeto a la aceptación de los términos y condiciones (31 usuarios online)