tablaturas, partituras y acordes para guitarra
Busca por banda/artista:
 
y/o título de la canción:
A B C D E F G H I J K L M N O P Q R S T U V W X Y Z 0 1 2 3 4 5 6 7 8 9 / Top 100 tabs
Categorías
Usuarios
usuario:
Darse de alta
password:
Artistas más visitados
Publicidad
TOP acordes y tablaturas de Magnapop


Estás en: Inicio > Letra M > Acordes y tablaturas de Magnapop > Lay it down
Lay it down
de Magnapop
Puntúa este acorde/tab:      
(0.9/5)
Reportar este acorde/tab
  Añadir a tus favoritos
  Imprimir

Date: Sun, 29 Oct 1995 16:01:17 -0500
From: belial@psu.edu (Shleestak)
Subject: TAB "Lay it Down"  Magnapop

LAY IT DOWN

Intro
B|--------------------|----------------------|
G|--------------------|----------------------|
D|----------77777777--|----------33333333----|
A|-33333333-55555555--|-77777777-11111111----|**
E|-11111111-----------|-55555555-------------|


   0:28
B|------------------------------|
G|------------------------------|
D|--4/5--76--4/5--76--4/576--|
A|--2/3--54--2/3--54--2/354--|
E|------------------------------|

    the part that kills...
B|---------------|-------------------------|
G|---------------|-------------------------|
D|--5-5555-------|-------------------------|
A|--3-3333-5-----|-------------------------|
E|---------3-----|-------------------------|


B|--------------------|----------------------|
G|--------------------|----------------------|
D|----------77777777--|----------33333333----|
A|-33333333-55555555--|-77777777-11111111----|**
E|-11111111-----------|-55555555-------------|


** this is my best guess, i can't turn my amp on 'cause my roommate's
   asleep.


it's all just variations from there.  have a blast.

tabbed by shleestak.  mail to:
ddd127@psu.edu
belial@psu.edu

"Dare to be honest, be yourself.  A cowardly man......"  -=Korn=-

                           FVGAZI.

   me homepage.... http://comland.com/~darrend/Belial.htm





		   
AcordesyTabs.com © 2008 Acordes y Tablaturas para guitarra. Tabs and Chords for guitar. Aviso Legal - Contacto
El uso de este sitio está sujeto a la aceptación de los términos y condiciones (70 usuarios online)