tablaturas, partituras y acordes para guitarra
Busca por banda/artista:
 
y/o título de la canción:
A B C D E F G H I J K L M N O P Q R S T U V W X Y Z 0 1 2 3 4 5 6 7 8 9 / Top 100 tabs
Categorías
Usuarios
usuario:
Darse de alta
password:
Artistas más visitados
Publicidad
TOP acordes y tablaturas de Patricio Rey y sus Redonditos de Ricota


La murga de los renegados
de Patricio Rey y sus Redonditos de Ricota
Puntúa este acorde/tab:      
(1.5/5)
Reportar este acorde/tab
  Añadir a tus favoritos
  Imprimir
Intro: Em (G-G5 – A-A5) + Riff 1 (G-G5 – A-A5) + Riff 1

Em
No da más, la murga de los renegados.
No da más, la murga sin la bendición.

(Arrastrar E5 desde el traste 12)
Con Riff 2
E5      Em       E5      G5
Entre sopores, modorras ciegas
E5      Em       E5         G5
y oscuridad de bodegas sin luz;
E5      Em      E5   G5
va esa murga desencantada
E5                   Riff 3
que lleva siglos así.

Em       Riff 4                     Riff 5
No da más, la murga de los renegados.
Em      Riff 6
No da más, la murga sin la bendición.

Putas serenas, que son tan lindas 
Que dan miedo cuando las miras.
Para vos ellas son capaces
De herirte con su dolor

No da más, la murga de los renegados.
No da más, la murga sin la bendición.

Solo: E (G – G – F – E) x2

No da más, la murga de los renegados.
No da más, la murga sin la bendición.

Destino armado por Bingo Tongo 
Tanta medula que envenenó.
Un bobo lava y un tonto enjuaga
Y la murga nos vuelve a gritar.


No da más, la murga de los renegados.
No da más, la murga sin la bendición.

Solo: E Riff 2 Como intro
    
Riff 1:

-3----|-5----|-----------------------
-3----|-5----|-8p5-5-5-5-8p5-5---5---
-4-4~-|-6-6~-|-----------------7-----
-5-5~-|-7-7~-|-----------------------
-5-5~-|-7-7~-|-----------------------
-3----|-5----|-----------------------

Riff 2:

-----------|---------------------
-----------|---------------------
-----------|-------4-4~----------
-2---------|-2-----5-5~----------
-2-------2-|-2-----5-5~----------
-0-2-0-2---|-0-2-0---------------

Riff 3:

-------------|-------------------
-------------|-------------------
-------------|-------------------
-------0h2---|-------------------
---0h2-------|-------------------
-------------|-------------------

Riff 4:       Riff 5:

-------------|-------------------
-------------|-------------------
--7h9~-------|-7/9-9-7-----------
-------------|---------9-7-9~----
-------------|-------------------
-------------|-------------------

Riff 6:

----10h12~~--|-------------------
-------------|-------------------
-------------|-------------------
-------------|-------------------
-------------|-------------------
-------------|-------------------

 Em  G   A  E5  G5  G5*  E   F   A5*
-0-|-3-|-5-|-x-|-x-|-x-|-0-|-1-|-x-|
-0-|-3-|-5-|-x-|-x-|-x-|-0-|-1-|-x-|
-0-|-4-|-6-|-x-|-x-|-4-|-1-|-2-|-6-|
-2-|-5-|-7-|-2-|-5-|-5-|-2-|-3-|-7-|
-2-|-5-|-7-|-2-|-5-|-5-|-2-|-3-|-7-|
-0-|-3-|-5-|-0-|-3-|-3-|-0-|-1-|-5-| 
G5*: en el intro 
A5*: en el intro
		   
AcordesyTabs.com © 2008 Acordes y Tablaturas para guitarra. Tabs and Chords for guitar. Aviso Legal - Contacto
El uso de este sitio está sujeto a la aceptación de los términos y condiciones (19 usuarios online)