tablaturas, partituras y acordes para guitarra
Busca por banda/artista:
 
y/o título de la canción:
A B C D E F G H I J K L M N O P Q R S T U V W X Y Z 0 1 2 3 4 5 6 7 8 9 / Top 100 tabs
Categorías
Usuarios
usuario:
Darse de alta
password:
Artistas más visitados
Publicidad
TOP acordes y tablaturas de la Gusana Ciega


Estás en: Inicio > Letra l > Acordes y tablaturas de la Gusana Ciega > Estación Lunar
Estación Lunar
de la Gusana Ciega
Puntúa este acorde/tab:      
(0.6/5)
Reportar este acorde/tab
  Añadir a tus favoritos
  Imprimir
riff 1
----------------------------------0  
--0-----3--0-----3--0------3-------          
-----0--------0----------0---------
-----------------------------------
-----------------------------------
-----------------------------------


riff 2** 
-----------------------------------
-----------------------------------
-----------------------------------
---------0--0/2---------0----------
--0--2-----------0--2--------------
-----------------------------------


riff 3 ***
------------------------------  (este riff se toka  
------------------------------   todo seguido)
------------------------------
--3s4s3s4s3s4s3s4s3s4---------
------------------------------
------------------------------
estacion lunar

Intro (riff 1*)

despues sigue el riff 2**  (se toka 2 veces)

                                                                                        
Em (riff 1*)  G              F#m       Em (riff 2 **)
Cuelga tus alhajas sobre un santo de metal 
                                                
Em(riff 1*)  G           F#m           Em (riff 2 **)
todos tus milagros en la vela de cristal        
                              
Em(riff 3) G       F#m        Em (riff 2 **)
pide      por que pueda regresar
                            
Em(riff 3) G      F#m        Em  (riff 2 **)
de la     transmision irregular 


C    D     Em    riff 2 **
Estacion lunar
C    D        G            Em
girasol no me dejes olvidar
C     D        Em riff 2 **
no quiero cambiar 


Fibras luminosas de tu vientre al corazon
viajas sobre cables enroscados por tu voz
comunicacion artificial 
convertida en alma digital
Estacion lunar
girasol no me dejes olvidar
el color de tus ojos es verdad
no quiero cambiar
Girasol no me dejes olvidar
el color de tus ojos es verdad
no quiero cambiar 

Em G F#m 
Rompes entre frases no te puedo ... 
Em 
amor desde la luna 
F#m Em 
es tan dificil descifrar 

Daniel Uribe
icq:58677421
		   
AcordesyTabs.com © 2008 Acordes y Tablaturas para guitarra. Tabs and Chords for guitar. Aviso Legal - Contacto
El uso de este sitio está sujeto a la aceptación de los términos y condiciones (21 usuarios online)