tablaturas, partituras y acordes para guitarra
Busca por banda/artista:
 
y/o título de la canción:
A B C D E F G H I J K L M N O P Q R S T U V W X Y Z 0 1 2 3 4 5 6 7 8 9 / Top 100 tabs
Categorías
Usuarios
usuario:
Darse de alta
password:
Artistas más visitados
Publicidad
TOP acordes y tablaturas de Ricardo Arjona


La Nena
de Ricardo Arjona
Puntúa este acorde/tab:      
(0.4/5)
Reportar este acorde/tab
  Añadir a tus favoritos
  Imprimir
Esta tablatura aunque en el tono original no podria
tocarse en guitarra, en piano sale identica a la del
CD. ojala les guste

Esta es la de los punteos

intro

E||--27----19----20----17----27----19----20----17----|
B||--------------------------------------------------|
G||--------------------------------------------------|
D||--------------------------------------------------|
A||--------------------------------------------------|
E||--------------------------------------------------|

                                                 
--27----19----20----17----27----19----20----17----|
--------------------------------------------------|
--------------------------------------------------|
--------------------------------------------------|
--------------------------------------------------|
--------------------------------------------------|


 La nana la desperto a las 6:42                      
|---27----19----20----17----27----19----20----17-----||
|----------------------------------------------------||
|----------------------------------------------------||
|----------------------------------------------------||
|----------------------------------------------------||
|----------------------------------------------------||
 la nena arruga los ojos pa' que no entre la luz
|---27----19----20----17----27----19----20----17-----||
|----------------------------------------------------||
|----------------------------------------------------||
|----------------------------------------------------||
|----------------------------------------------------||
|----------------------------------------------------||

 Recita la oración de siempre para cumplir con dios     
--24------15-20-19--27--22--19--27----19----20----20--22--|
----------------------------------------------------------|
----------------------------------------------------------|
----------------------------------------------------------|
----------------------------------------------------------|
----------------------------------------------------------|


 Acto seguido en el pecho se dibuja una cruz             
--24------15-20-19--27--22--19--27----19----20----17----|
--------------------------------------------------------|
--------------------------------------------------------|
--------------------------------------------------------|
--------------------------------------------------------|
--------------------------------------------------------|


de quien es el auto que espera dos cuadras al sur.     
----------------------------------|
----------------------------------|
----------------------------------|
----------------------------------|
----------------------------------|
----------------------------------|


 armada con libros de texto la lleva el chofer        
|---27----19----20----17----27----19----20----17-----||
|----------------------------------------------------||
|----------------------------------------------------||
|----------------------------------------------------||
|----------------------------------------------------||
|----------------------------------------------------||
  mama la despide en la puerta agitando los brasos
|---27----19----20----17----27----19----20----17-----||
|----------------------------------------------------||
|----------------------------------------------------||
|----------------------------------------------------||
|----------------------------------------------------||
|----------------------------------------------------||
  

La nena tiene 9 años como iva a saber                       
--24------15-20-19--27--22--19--27----19----20----20--22--|
----------------------------------------------------------|
----------------------------------------------------------|
----------------------------------------------------------|
----------------------------------------------------------|
----------------------------------------------------------|

que hace mas de 4 meses que le siguen los pasos                    
--24------15-20-19--27--22--19--27----19----20----17----|
--------------------------------------------------------|
--------------------------------------------------------|
--------------------------------------------------------|
--------------------------------------------------------|
--------------------------------------------------------|


y el auto que espera a dos cuadra enciende el motor       
----------------------------------|
----------------------------------|
----------------------------------|
----------------------------------|
----------------------------------|
----------------------------------|

( aqui entra la guitarra arpegeando en Lam)
                                                       
 un tiro al chofer en la cien la nena va a la deriva   
|---27----19----20----17----27----19----20----17-----||
|----------------------------------------------------||
|----------------------------------------------------||
|----------------------------------------------------||
|----------------------------------------------------||
|----------------------------------------------------||
un arbol detiene la inercia ellos la tienen rodeada
|---27----19----20----17----27----19----20----17-----||
|----------------------------------------------------||
|----------------------------------------------------||
|----------------------------------------------------||
|----------------------------------------------------||
|----------------------------------------------------||


 su frente dio contra un cristal y le ha abierto una herida   
--24------15-20-19--27--22--19--27----19----20----20--22--|
----------------------------------------------------------|
----------------------------------------------------------|
----------------------------------------------------------|
----------------------------------------------------------|
----------------------------------------------------------|

los vecinos encienrran con llave nadie a visto nada
                                                            
--24------15-20-19--27--22--19--27----19----20----17----|
--------------------------------------------------------|
--------------------------------------------------------|
--------------------------------------------------------|
--------------------------------------------------------|
--------------------------------------------------------|

y al mano que mato a su chofer| la nena es un uno con ceros
ahora le opaca los gritos     | apartir de hoy         
------------------------------|--------------------------||
------------------------------|--------------------------||
------------------------------|--------------------------||
------------------------------|--------------------------||
------------------------------|--------------------------||
------------------------------|--------------------------||

Esta son los acordes de piano pasados a una guitarra
de 7 cuerdas
es algo dificil, pero tranten de unir los punteos 
y los acordes para que suene Hermoso.
Los dos van al mismo tiempo.
 
intro                                                                          
E||-----------------------------------|-----------------------------------|
B||-----------------------------------|-----------------------------------|
G||-----------------------------------|-----------------------------------|
D||---------------------------------7-|--7--------------------------------|
A||-----------------------------------|-----------------------------------|
E||---------------------------------5-|--5--------------------------------|
A||---------------------------------0-|--0--------------------------------|


 la nana la desperto a las 6:42        la nena arruga los ojos pa' que no entre la luz
|-----------------------------------||----------------------------------|
|-----------------------------------||----------------------------------|
|-----------------------------------||----------------------------------|
|-----------------------------------||----------------------------------|
|-----------------------------------||----------------------------------|
|-----------------------------------||----------------------------------|
|-----------------------------------||----------------------------------|


Recita la oración de siempre para cumplir con dios          
----------------------------------|
----------------------------------|
----------------------------------|
----------------------------------|
----------------------------------|
----------------------------------|
----------------------------------|
Acto seguido en el pecho se dibuja una cruz   de quien es el auto que espera dos cuadras al sur.
--------------------------------------------|----------------------------------------|
--------------------------------------------|--6--------8--------10--------10--------|
--------------------------------------------|----------------------------------------|
--------------------------------------------|--3--------5--------7---------7---------|
--------------------------------------------|----------------------------------------|
--------------------------------------------|--1--------3--------5---------5---------|
--------------------------------------------|----------------------------------------|

armada con libros de texto la lleva el chofer         mama la despide en la puerta agitando los brasos  
|---------------------------------------------------||----------------------------------|
|---------------------------------------------------||----------------------------------|
|---------------------------------------------------||----------------------------------|
|---------------------------------------------------||----------------------------------|
|---------------------------------------------------||----------------------------------|
|---------------------------------------------------||----------------------------------|
|---------------------------------------------------||----------------------------------|

La nena tiene 9 años como iva a saber
----------------------------------|
----------------------------------|
----------------------------------|
----------------------------------|
----------------------------------|
----------------------------------|
----------------------------------|
                                                         y el auto que espera a dos cuadras
que hace mas de 4 meses que le siguen los pasos             enciende el motor
------------------------------------------------------|----------------------------------------|
------------------------------------------------------|--6--------8--------10--------10--------|
------------------------------------------------------|----------------------------------------|
------------------------------------------------------|--3--------5--------7---------7---------|
------------------------------------------------------|----------------------------------------|
------------------------------------------------------|--1--------3--------5---------5---------|
------------------------------------------------------|----------------------------------------|
--|
|-----------------------------------||----------------------------------|
|-----------------------------------||----------------------------------|
|-----------------------------------||----------------------------------|
|-----------------------------------||----------------------------------|
|-----------------------------------||----------------------------------|


                                                                            
----------------------------------|----------------------------------------|
----------------------------------|--6--------8--------10--------10--------|
----------------------------------|----------------------------------------|
----------------------------------|--3--------5--------7---------7---------|
----------------------------------|----------------------------------------|
----------------------------------|--1--------3--------5---------5---------|
----------------------------------|----------------------------------------|


                                           
------------------------------------------|
--6--------8--------10--------12----13----|
------------------------------------------|
--3--------5--------7---------9-----10----|
------------------------------------------|
--1--------3--------5---------7-----8-----|
------------------------------------------|


                                             
--10----------------------------------------|
------------5----8----10--------12----13----|
--7-----------------------------------------|
------------2----5----7---------9-----10----|
--5-----------------------------------------|
------------0----3----5---------7-----8-----|
--------------------------------------------|


                                          
--10-------------------------------------|
------------5----8----13--------8--------|
--7--------------------------------------|
------------2----5----10--------5--------|
--5--------------------------------------|
------------0----3----8---------3--------|
-----------------------------------------|


                                         
---------------------------------------||
--10--------8--------6--------8--------||
---------------------------------------||
--7---------5--------3--------5--------||
---------------------------------------||


                                                                         
|-----------------------------------||----------------------------------|
|-----------------------------------||----------------------------------5---------3--------1--------3--------||
---------------------------------------||


Cualquier corrección o sugerencia escribirme a mi correo
Ah y alguien que me diga a la nena que le pasa despues
o sera que habra una continuación.
		   
AcordesyTabs.com © 2008 Acordes y Tablaturas para guitarra. Tabs and Chords for guitar. Aviso Legal - Contacto
El uso de este sitio está sujeto a la aceptación de los términos y condiciones (63 usuarios online)