tablaturas, partituras y acordes para guitarra
Busca por banda/artista:
 
y/o título de la canción:
A B C D E F G H I J K L M N O P Q R S T U V W X Y Z 0 1 2 3 4 5 6 7 8 9 / Top 100 tabs
Categorías
Usuarios
usuario:
Darse de alta
password:
Artistas más visitados
Publicidad
TOP acordes y tablaturas de Barricada


Estás en: Inicio > Letra B > Acordes y tablaturas de Barricada > Esta es una noche de rock'n roll
Esta es una noche de rock'n roll
de Barricada
Puntúa este acorde/tab:      
(0.4/5)
Reportar este acorde/tab
  Añadir a tus favoritos
  Imprimir
Intro 
-----
							
E|--------------------------------------------------------|	 |
B|--------------------------------------------------------|	 |
G|-7-------------9-10-12--10-9--3-----------5-------10--5-|	 |
D|-7-------------9-10-12--10-9--3-----------5-------10--5-|	 |
A|-5-5-5-5-5-5-5-7-8--10--8--7--1-1-1-1-1-1-3-3-3-3-8---3-|	 |
E|--------------------------------------------------------|  	 |
							 |
							 |=> Todo esto 2 veces	
E|---------------------------------------------------|		 |
B|---------------------------------------------------|		 |
G|-7-------------9-10-12--10-9--3-----------5-----5--|		 |
D|-7-------------9-10-12--10-9--3-----------5-----5--|		 |
A|-5-5-5-5-5-5-5-7-8--10--8--7--1-1-1-1-1-1-3-3-3-3--|		 |
E|---------------------------------------------------|  	 |
							/


Aluego empieza con el ritmo que va a llevar durante la estrofa después:

     D5			    C5 A#5		      A5 G5	     E5	  A5
E|-----------------------------------------------------------------------------|
B|-----------------------------------------------------------------------------|
G|---7---------------------7-5-3---------------------3-2-----------------------| x 2
D|---7---------------------7-5-3---------------------3-2-5-----------2-----7---|
A|---5-5-5-5-5-5-5-5-5-5-5-5-3-1-1-1-1-1-1-1-1-1-1-1-1-0-5-----------2-----7---|
E|-------------------------------------------------------3-3-3-3-3-3-0-0-0-5---| 



Luego el punteillo de la muerte ese que se repite varias veces durante la canción es :


E|------------------------------------------------|-----|----------------------------|
B|------------------------------------------------|-----|----------------------------|
G|--------------------------------------------2-3-|-----|-7---------------------7-5--|
D|-3--2-3-2-3-2-3--2-3-2-3-2-3--2-3-2-3-2-3-5-----|-x3--|-7---------------------7-5--|
A|------------------------------------------------|-----|-5-5-5-5-5-5-5-5-5-5-5-5-3--|
E|------------------------------------------------|-----|----------------------------|

Después va el redoble ese atómica de la batería y entra la estrofa.


Estrofa
-------
Los mismos acordes de antes con alguna pequeña variación. Los pongo sobre una parte de la 
letra pa que os hagáis una idea de como van (las transiciones de acorde a acorde van igual 
que arriba, solo que no las pongo pa abreviar):

D5		    	    A#5  	
Ya se pasó una botella infernal
    G5		 E5	  A5	     D5	   C5
en la habitación alguien rompió el diván



Durante la segunda estrofa hay un punteíllo cuando se llega al A#5 que es asín más o menos:

E|--------------------------------|
B|--------------------------------|
G|--------------------------------|
D|---------0-0-2-2-3-3-2-2-0-0----|
A|-1-1-3-3---------------------3--|
E|--------------------------------| 



Estribillo:
----------

D5	     C5	   D5		C5
Esta es una noche, esta es una noche
D5	     C5	     A#5     C5
esta es una noche de rock'n roll


Solo:
------

Este es el solo que hacen las 2 guitarras a la vez (el primero de todos).De todas formas va 
sobre los acordes de la estrofa:
E|---------------------------------------------------------------------------------------|
B|---------------------------------------------------------------------------------------|
G|-10b12-10---10-9-10-12-10-9-------12b14-12--12b14-12b14-12--10-9-10-12-10-9------------|
D|----------------------------12-8--------------------------------------------10-10/12---|
A|---------------------------------------------------------------------------------------|
E|---------------------------------------------------------------------------------------|  

Notación: 	b: bending
		/: arrastre (slide)


EL siguiente solo no lo he sacao pero va básicamente en la pentatónica menor de D
		   
AcordesyTabs.com © 2008 Acordes y Tablaturas para guitarra. Tabs and Chords for guitar. Aviso Legal - Contacto
El uso de este sitio está sujeto a la aceptación de los términos y condiciones (31 usuarios online)