tablaturas, partituras y acordes para guitarra
Busca por banda/artista:
 
y/o título de la canción:
A B C D E F G H I J K L M N O P Q R S T U V W X Y Z 0 1 2 3 4 5 6 7 8 9 / Top 100 tabs
Categorías
Usuarios
usuario:
Darse de alta
password:
Artistas más visitados
Publicidad
TOP acordes y tablaturas de Ataris


Estás en: Inicio > Letra A > Acordes y tablaturas de Ataris > Summer wind was always our song
Summer wind was always our song
de Ataris
Puntúa este acorde/tab:      
(0.2/5)
Reportar este acorde/tab
  Añadir a tus favoritos
  Imprimir

Song: Summer wind was always our song
Artist: The Ataris
Album: End is forever
Tabbed by: Aaron Anquetil (e-mail aaron96@theataris.com OR
spiteri@integritynet.com.au -preferably the first one,
thanks)                       

> = strum


INTRO

G:---------------------------------------------------------------
D:---------------------------------------------------------------
A:-4>-0>-7>-4>-0>------------------------------------------------
E:---------------------------------------------------------------


Part One

G:---------------------------------------------------------------
D:---------------------------------------------------------------
A:-77-777-777-77777-44-444-444-44444-22-222-222-22222-00-000-----
E:---------------------------------------------------------------


continued...

G:---------------------------------------------------------------
D:---------------------------------------------------------------
A:-000-00000-----------------------------------------------------
E:---------------------------------------------------------------


Part Two

G:---------------------------------------------------------------
D:---------------------------------------------------------------
A:----------------------4>-0>------------------------------------
E:-2-4-5--5-5-5-5-5-5-5------------------------------------------


Part Three

G:---------------------------------------------------------------
D:---------------------------------------------------------------
A:-7>-4>-2>-0>-7>-4>-2>-0>---------------------------------------
E:---------------------------------------------------------------


Part Four (2:08)

G:---------------------------------------------------------------
D:---------------------------------------------------------------
A:-4>-7>-4>-7>-4>-7>-4>-7-7-4-4-2-2-0-0-0-0----------------------
E:---------------------------------------------------------------


Part Five (2:46)

G:-7--4--2--0>---------------------------------------------------
D:-------------2>------------------------------------------------
A:----------------2>-0>------------------------------------------
E:---------------------------------------------------------------


Part Six - rest of the song...

G:---------------------------------------------------------------
D:---------------------------------------------------------------
A:-4>-2>-0>-----------------0>-----------------0>----------------
E:----------5-5-5-4-4-4-0-0----5-5-5-4-4-4-0-0-------------------


End on open E.


ORDER-

Intro       x1
Part One    x2
Part Two    x2
Part Three  x2
Part Two    x2
Part Four   x2
Part Five   x1
Part Six    Rest of song



That last part of the song is kinda wierd, a good kinda weird though
(The Ataris RULE). But I'm pretty damn sure it's right! As for the rest
of the song, I'm 99% certain that it's all right. Look out for the "You
need a hug" tab - I'll be posting it soon, as well as a few older Atari
songs.

Any problems, questions etc. E-mail me at aaron96@theataris.com

-Aaron-



		   
AcordesyTabs.com © 2008 Acordes y Tablaturas para guitarra. Tabs and Chords for guitar. Aviso Legal - Contacto
El uso de este sitio está sujeto a la aceptación de los términos y condiciones (57 usuarios online)