tablaturas, partituras y acordes para guitarra
Busca por banda/artista:
 
y/o título de la canción:
A B C D E F G H I J K L M N O P Q R S T U V W X Y Z 0 1 2 3 4 5 6 7 8 9 / Top 100 tabs
Categorías
Usuarios
usuario:
Darse de alta
password:
Artistas más visitados
Publicidad
TOP acordes y tablaturas de Rammstein


Nebel
de Rammstein
Puntúa este acorde/tab:      
(0.5/5)
Reportar este acorde/tab
  Añadir a tus favoritos
  Imprimir

Artist: Rammstein
Song:   Nebel 
Album:  Mutter

 Intro (Keyboard arranged for guitar [dist. off])
e||--5-5-5-5-5-5-3-3-0-0-0-0-0-0-0-0--|--0-0-0-0-0-0-0-0------------------||
h||-----------------------------------|------------------3-3-3-3-3-3-3-3--||
g||-----------------------------------|-----------------------------------||
D||-----------------------------------|-----------------------------------||
A||--2-2-2-2-2-2-2-2-2-2-2-2-2-2-2-2--|--0-0-0-0-0-0-0-0-0-0-0-0-0-0-0-0--||
E||-----------------------------------|-----------------------------------||

e||--0-0-0-0-0-0-0-0------------------|-----------------------------------||
h||------------------0-0-0-0-0-0-0-0--|--1-1-1-1-1-1-1-1------------------||
g||-----------------------------------|------------------2-2-2-2-2-2-2-2--||
D||-----------------------------------|-----------------------------------||
A||-----------------------------------|--0-0-0-0-0-0-0-0-0-0-0-0-0-0-0-0--||
E||--3-3-3-3-3-3-3-3-3-3-3-3-3-3-3-3--|-----------------------------------||

 verse 1 (dist. off)
e||-----------------------------------|-----------------------------------||
h||-----------------------------------|--5--------------------------------||
g||-----------------------------------|------5----------------------------||
D||--5--------------------------------|-----------------------------------||
A||-----------------------------------|-----------------------------------||
E||-----------------------------------|-----------------------------------||
     °  “Sie stehen eng umschlungen”     °   °  “ein Fleischgemisch...”
                     
 verse 2 (dist. off)
e||-----------------------------------|-----------------------------------||
h||-----------------------------------|-----------------------------------||
g||-----10-------9-------7-------9----|-----10-------9-------7-------7----||
D||----7---7---7---7---7---7---7---7--|----7---7---7---7---7---7---7---7--||
A||--0-------0-------0-------0--------|--0-------0-------0-------0--------||
E||-----------------------------------|-----------------------------------||
     “Hält sie zitternd seine Hand”    “Und hat ihn auf die Stirn geküsst”

 bridge 1 (dist. off)
e||-----------------------------------|-----------------------------------||
h||-----------------------------------|-----------------------------------||
g||-----10-------9-------7-------9----|------9-------7-------9-------7----||
D||----7---7---7---7---7---7---7---7--|----7---7---7---7---7---7---7---7--||
A||--0-------0-------0-------0--------|--0-------0-------0-------0--------||
E||-----------------------------------|-----------------------------------||

e||-----------------------------------|-----------------------------------||
h||-----(7)-------------(7)-----------|-----------------------------------||
g||-----11-------9------11-------9----|------7-------9------10-------9----||
D||----7---7---7---7---7---7---7---7--|----7---7---7---7---7---7---7---7--||
A||--0-------0-------0-------0--------|--0-------0-------0-------0--------||
E||-----------------------------------|-----------------------------------||

 verse 3 (dist. off)
e||-----------------------------------|-----------------------------------||
h||-----------------------------------|-----------------------------------||
g||-----10-------9-------7-------9----|-----10-------9-------7-------7----||
D||----7---7---7---7---7---7---7---7--|----7---7---7---7---7---7---7---7--||
A||--0-------0-------0-------0--------|--0-------0-------0-------0--------||
E||-----------------------------------|-----------------------------------||
   “sie trägt den Abend in der Brust”
 
e||-----------------------------------|-----------------------------------||
h||-----------------------------------|-----------------------------------||
g||-----10-------9-------7-------9----|-----10-------9-------7-------7----||
D||----7---7---7---7---7---7---7---7--|----7---7---7---7---7---7---7---7--||
A||--0-------0-------0-------0--------|--0-------0-------0-------0--------||
E||-----------------------------------|-----------------------------------||
   “und weiss dass sie verleben muss”
e||-----------------------------------|-----------------------------------||
h||-----------------------------------|-----------------------------------||
g||-----10-------9-------7-------9----|-----10-------9-------7-------7----||
D||----7---7---7---7---7---7---7---7--|----7---7---7---7---7---7---7---7--||
A||--0-------0-------0-------0--------|--0-------0-------0-------0--------||
E||-----------------------------------|-----------------------------------||
   “sie legt den Kopf in seinen Schoss”

e||-----------------------------------|-----------------------------------||
h||-----------------------------------|-----------------------------------||
g||-----10-------9-------7-------9----|-----10-------9-------7-------7----||
D||----7---7---7---7---7---7---7---7--|----7---7---7---7---7---7---7---7--||
A||--0-------0-------0-------0--------|--0-------0-------0-------0--------||
E||-----------------------------------|-----------------------------------||
     “und bittet einen letzten Kuss”                             “und dann

 chorus-riff (dist. on)
e||-----------------------------------|-----------------------------------||
h||-10~~~~~~~~~~~~~~~~~~~~~~~~~~~~~~--|-----------------------------------||
g||--9~~~~~~~~~~~~~~~~~~~~~~~~~~~~~~--|--7~~~~~~~~~~~~~~~~~~~~~~~~~~~~~~--||
D||--7~~~~~~~~~~~~~~~~~~~~~~~~~~~~~~--|--7~~~~~~~~~~~~~~~~~~~~~~~~~~~~~~--||
A||-----------------------------------|--5~~~~~~~~~~~~~~~~~~~~~~~~~~~~~~--||
E||-----------------------------------|-----------------------------------||
    hat er sie geküsst            wo das Meer zu Ende ist             ihre

e||-----------------------------------|-----------------------------------||
h||-----------------------------------|-----------------10~~~~~~~~~~~~~~--||
g||--9~~~~~~~~~~~~~~-4~~~~~~~~~~~~~~--|--5~~~~~~~~~~~~~~-9~~~~~~~~~~~~~~--||
D||--9~~~~~~~~~~~~~~-4~~~~~~~~~~~~~~--|--5~~~~~~~~~~~~~~-7~~~~~~~~~~~~~~--||
A||--7~~~~~~~~~~~~~~-2~~~~~~~~~~~~~~--|--3~~~~~~~~~~~~~~------------------||
E||-----------------------------------|-----------------------------------||
     Lippen schwach und blass und seine Augen werden nass”

 bridge 2 (dist. off)
e||-----------------------------------|-----------------------------------||
h||-----------------<5----------------|---------5-------------------------||
g||----------------------5------------|--------------------------------5--||
D||-----------------------------------|-----------------------------------||
A||-----------------------------------|-----------------------------------||
E||-----------------------------------|-----------------------------------||
                     °   °                      °                      °

 guitar solo (one guit. play solo [dist. on/wah-effect], other: chorus-riff) 
e||-----------------------------------|-----------------------------------||
h||-----------------------------------|-----------------------------------||
g||-1414141414141617-9-9-9-9-9-9-9-9--|--9-9-9-9-9-9-9-9-7-7-7-7-7-7-7-7--||
D||-----------------------------------|-----------------------------------||
A||-1212121212121415-7-7-7-7-7-7-7-7--|--7-7-7-7-7-7-7-7-5-5-5-5-5-5-5-5--||
E||-----------------------------------|-----------------------------------||

e||-----------------------------------|-----------------------------------||
h||-----------------------------------|-----------------------------------||
g||--9-9-9-9-9-9-9-9-4-4-4-4-4-4-4-4--|--5-5-5-5-5-5-5-51414141414141414--||
D||-----------------------------------|-----------------------------------||
A||--7-7-7-7-7-7-7-7-2-2-2-2-2-2-2-2--|--3-3-3-3-3-3-3-31212121212121212--||
E||-----------------------------------|-----------------------------------||

e||-----------------------------------|-----------------------------------||
h||-----------------------------------|-----------------------------------||
g||-1414141414141617-9-9-9-9-9-9-9-9--|--9-9-9-9-9-9-9-9-7-7-7-7-7-7-7-7--||
D||-----------------------------------|-----------------------------------||
A||-1212121212121415-7-7-7-7-7-7-7-7--|--7-7-7-7-7-7-7-7-5-5-5-5-5-5-5-5--||
E||-----------------------------------|-----------------------------------||
              “der letzte Kuss                       ist so lang her
e||-----------------------------------|-----------------------------------||
h||-----------------------------------|-----------------------------------||
g||--9-9-9-9-9-9-9-9-4-4-4-4-4-4-4-4--|--5-5-5-5-5-5-5-5-2----------------||
D||-----------------------------------|------------------2----------------||
A||--7-7-7-7-7-7-7-7-2-2-2-2-2-2-2-2--|--3-3-3-3-3-3-3-3-0----------------||
E||-----------------------------------|-----------------------------------||
                der letzte Kuss          er erinnert sich nicht mehr”

° natural harmonic tone


Bass parts of the song

 verse 1, 2 and 3
G||-----------------------------------|-----------------------------------||
D||-----------------------------------|-----------------------------------||
A||----0-0-0-0-0-0-0-3-0-0-0-0-0-0-0--|----0-0-0-0-0-0-0---0-0-0-0-0-0-0--||
D||--5--------------------------------|--5---------------5----------------||

 end of verse 2, 3
G||-----------------------------------|-----------------------------------||
D||-----------------------------------|-----------------------------------||
A||----0-0-0-0-0-0-0-3-0-0-0-0-0-0-0--|-----------------------------------||
D||--5--------------------------------|--3-3-3-3-3-3-3-3-0-0-0-0-0-0-0-0--||

 bridge 1, bridge 2, chorus 
G||-----------------------------------|-----------------------------------||
D||-----------------------------------|----0-0-0-0-0-0-0---0-0-0-0-0-0-0--||
A||----0-0-0-0-0-0-0---0-0-0-0-0-0-0--|--3---------------3----------------||
D||--5---------------5----------------|-----------------------------------||

G||-----------------------------------|-----------------------------------||
D||--0-2-2-2-2-2-2-2------------------|-----------------------------------||
A||------------------2-2-2-2-2-2-2-2--|--3-3-3-3-3-3-3-3---0-0-0-0-0-0-0--||
D||-----------------------------------|------------------5----------------||



tabbed by Robert from Germany

		   
AcordesyTabs.com © 2008 Acordes y Tablaturas para guitarra. Tabs and Chords for guitar. Aviso Legal - Contacto
El uso de este sitio está sujeto a la aceptación de los términos y condiciones (26 usuarios online)