tablaturas, partituras y acordes para guitarra
Busca por banda/artista:
 
y/o título de la canción:
A B C D E F G H I J K L M N O P Q R S T U V W X Y Z 0 1 2 3 4 5 6 7 8 9 / Top 100 tabs
Categorías
Usuarios
usuario:
Darse de alta
password:
Artistas más visitados
Publicidad
TOP acordes y tablaturas de León Gieco


Estás en: Inicio > Letra L > Acordes y tablaturas de León Gieco > La rata Lali
La rata Lali
de León Gieco
Puntúa este acorde/tab:      
(0.6/5)
Reportar este acorde/tab
  Añadir a tus favoritos
  Imprimir
G|-----------------------------------------------------------------|
D|-----------------------------------------------------------------|
A|-----2-2-3-3-4-5-----2-2-3-3-4-5-----2-2-3-3-4-5-----2-2-3-3-4-5-|
E|-3-3-------------3-3-------------3-3-------------3-3-------------|

G|-----------------------------------------------------------------|
D|-----2-2-3-4-5-5-----2-2-3-4-5-5---------------------------------|
A|-3-3-------------3-3-----------------2-2-3-3-4-5-----2-2-3-3-4-5-|
E|---------------------------------3-3-------------3-3-------------|
                                                    __    __  __     __
                                                   /  toda  /  final  
G|-------------------------------------------------|---------|---------|
D|-----4-4-5-5-6-7-----2-2-3-3-4-5-5-5-3-3-2-2-1-1-|-1-2-4-5-|-0-------|
A|-5-5-------------3-3-----------------------------|---------|---3-1---|
E|-------------------------------------------------|---------|-------3-|
		   
AcordesyTabs.com © 2008 Acordes y Tablaturas para guitarra. Tabs and Chords for guitar. Aviso Legal - Contacto
El uso de este sitio está sujeto a la aceptación de los términos y condiciones (24 usuarios online)