tablaturas, partituras y acordes para guitarra
Busca por banda/artista:
 
y/o título de la canción:
A B C D E F G H I J K L M N O P Q R S T U V W X Y Z 0 1 2 3 4 5 6 7 8 9 / Top 100 tabs
Categorías
Usuarios
usuario:
Darse de alta
password:
Artistas más visitados
Publicidad
TOP acordes y tablaturas de Evanescence


Haunted
de Evanescence
Puntúa este acorde/tab:      
(0.1/5)
Reportar este acorde/tab
  Añadir a tus favoritos
  Imprimir
By: Darren (s3_17@hotmail.com)
Band:Evanescence
Song: Haunted(First one on Guitar Tab Universe :P )


key:
/ = slide
pm= palm mute
h = hammer on
p = pull off
^ = bend
~ = Let note ring
# = artificial harmonic

intro
electronics


chorus I
gI
--------------------------------------------------------------------------------
--------------------------------------------------------------------------------
--------------------------------------------------------------------------------
------------------------------7---7-7-------------------------------------------
--------------2---2-2--/10-9--5---5-5--/9-7--2---2-2--/10-9-10-9-7-9------------
--------------0---0-0---------5---5-5--------0---0-0----------------------------

--------------------------------------------------------------------------------
--------------------------------------------------------------------------------
--------------------------------------------------------------------------------
-------------------7---7-7------------------------------------------------------
---2---2-2--/10-9--5---5-5--/9-7--2---2-2--/10-9-10-9-7-9-2---------------------
---0---0-0---------5---5-5--------0---0-0-----------------0---------------------

gII
--------------------------------------------------------------------------------
--------------------------------------------------------------------------------
--------------------------------------------------------------------------------
-----------------------------------7---7-7---7-7------------------------------4-
--------------2---2-2---2-2---x-x--5---5-5---5-5---x-x--2---2-2---2-2---x-x---2-
--------------0---0-0---0-0---x-x--5---5-5---5-5---x-x--0---0-0---0-0---x-x-----

--------------------------------------------------------------------------------
--------------------------------------------------------------------------------
--------------------------------------------------------------------------------
------------------------7---7-7---7-7------------------------------4---4---4---4
---2---2-2---2-2---x-x--5---5-5---5-5---x-x--2---2-2---2-2---x-x---2---2---2---2
---0---0-0---0-0---x-x--5---5-5---5-5---x-x--0---0-0---0-0---x-x----------------



verse I
gI & gII
--------------------------------------------------------------------------------
--------------------------------------------------------------------------------
--------------------------------------------------------------------------------
--------------------------------------------------------------------------------
---2-2-2--2-2-2---2--2--------2-2-2--2-2-2---2--2--------2-2-2--2-2-2---2-2-----
---0-0-0--0-0-0---0--0--------0-0-0--0-0-0---0--0--------0-0-0--0-0-0---0-0-----
pm - - -  - - -               - - -  - - -               - - -  - - -           



chorus II
gI
--------------------------------------------------------------------------------
--------------------------------------------------------------------------------
--------------------------------------------------------------------------------
------------------------------7---7-7-------------------------------------------
--------------2---2-2--/10-9--5---5-5--/9-7--2---2-2--/10-9-10-9-7-9------------
--------------0---0-0---------5---5-5--------0---0-0----------------------------

--------------------------------------------------------------------------------
--------------------------------------------------------------------------------
--------------------------------------------------------------------------------
-------------------7---7-7------------------------------------------------------
---2---2-2--/10-9--5---5-5--/9-7--2---2-2--/10-9--------------------------------
---0---0-0---------5---5-5--------0---0-0---------------------------------------

gII
--------------------------------------------------------------------------------
--------------------------------------------------------------------------------
--------------------------------------------------------------------------------
-----------------------------------7---7-7---7-7------------------------------4-
--------------2---2-2---2-2---x-x--5---5-5---5-5---x-x--2---2-2---2-2---x-x---2-
--------------0---0-0---0-0---x-x--5---5-5---5-5---x-x--0---0-0---0-0---x-x-----

--------------------------------------------------------------------------------
--------------------------------------------------------------------------------
--------------------------------------------------------------------------------
------------------------7---7-7---7-7------------------------------4---4---4---4
---2---2-2---2-2---x-x--5---5-5---5-5---x-x--2---2-2---2-2---x-x---2---2---2---2
---0---0-0---0-0---x-x--5---5-5---5-5---x-x--0---0-0---0-0---x-x----------------



solo
gI
--------------------------------------------------------------------------------
--8-7-5-5^7-5~-55--5^7-4-4h5p4---4----------------------------------------------
-------------------------------6---6-4-6-6#^8-4h6~-6^8-4h6~-4h6p4----4h6p4-----4
------------------------------------------------------------------6p4-----6p4h6-
--------------------------------------------------------------------------------
--------------------------------------------------------------------------------

--------------------------------------------------------------------------------
---------------------------------------------------------5-4-2-4^5-4p2-5p4p2-5p4
--4h6p4---4---------------------------------4h6-4-6-6^8-------------------------
--------7---7-6-5---4-----------------4h6h7-------------------------------------
------------------7---7-6---4#--4h6h7-------------------------------------------
--------------------------7-----------------------------------------------------

--------------------------------------------------------------------------------
--5/7-5-4-5-4-5-4#-5-5/7-5-7-7/9-10-9-7-7h9p7-5-7-5~~---------------------------
--------------------------------------------------------------------------------
--------------------------------------------------------------------------------
--------------------------------------------------------------------------------
--------------------------------------------------------------------------------


gII
--------------------------------------------------------------------------------
--------------------------------------------------------------------------------
--------------------------------------------------------------------------------
--/-6--6--6--6---4--4--4--4-/-6--6--6--6--------------6--6--6--6--4--4--4--4-/-6
--/-4--4--4--4---2--2--2--2-/-4--4--4--4--6--6--6--6--4--4--4--4--2--2--2--2-/-4
-------------------------------------------4--4--4--4---------------------------



chorus III
gI
--------------------------------------------------------------------------------
--------------------------------------------------------------------------------
--------------------------------------------------------------------------------
------------------------------7---7-7-------------------------------------------
--------------2---2-2--/10-9--5---5-5--/9-7--2---2-2--/10-9-10-9-7-9------------
--------------0---0-0---------5---5-5--------0---0-0----------------------------

--------------------------------------------------------------------------------
--------------------------------------------------------------------------------
--------------------------------------------------------------------------------
-------------------7---7-7------------------------------------------------------
---2---2-2--/10-9--5---5-5--/9-7--2---2-2--/10-9--------------------------------
---0---0-0---------5---5-5--------0---0-0---------------------------------------

gII
--------------------------------------------------------------------------------
--------------------------------------------------------------------------------
--------------------------------------------------------------------------------
------------------------7---7-7---7-7------------------------------4---4---4---4
---2---2-2---2-2---x-x--5---5-5---5-5---x-x--2---2-2---2-2---x-x---2---2---2---2
---0---0-0---0-0---x-x--5---5-5---5-5---x-x--0---0-0---0-0---x-x----------------

--------------------------------------------------------------------------------
--------------------------------------------------------------------------------
--------------------------------------------------------------------------------
------------------------7---7-7---7-7------------------------------4---4---4---4
---2---2-2---2-2---x-x--5---5-5---5-5---x-x--2---2-2---2-2---x-x---2---2---2---2
---0---0-0---0-0---x-x--5---5-5---5-5---x-x--0---0-0---0-0---x-x----------------


End
gI & gII
--------------------------
--------------------------
--------------------------
--------------------------
---2-2-2--2-2-2---2--2----
---0-0-0--0-0-0---0--0----x2
pm - - -  - - -
		   
AcordesyTabs.com © 2008 Acordes y Tablaturas para guitarra. Tabs and Chords for guitar. Aviso Legal - Contacto
El uso de este sitio está sujeto a la aceptación de los términos y condiciones (36 usuarios online)