tablaturas, partituras y acordes para guitarra
Busca por banda/artista:
 
y/o título de la canción:
A B C D E F G H I J K L M N O P Q R S T U V W X Y Z 0 1 2 3 4 5 6 7 8 9 / Top 100 tabs
Categorías
Usuarios
usuario:
Darse de alta
password:
Artistas más visitados
Publicidad
TOP acordes y tablaturas de Carnaval de Cadiz


Estás en: Inicio > Letra C > Acordes y tablaturas de Carnaval de Cadiz > La revolución (presentación)
La revolución (presentación)
de Carnaval de Cadiz
Puntúa este acorde/tab:      
(0.6/5)
Reportar este acorde/tab
  Añadir a tus favoritos
  Imprimir
Introducción:

      Re menor
1|--------1--------------------------------------------
2|------3------------3---------3----------3------------
3|----2------------0---------0----------0--------------
4|--0------------0---------0----------0----------------
5|-------------3---------2----------1------------------
6|-----------------------------------------------------
      Re menor
1|--------1--------------------------------------------
2|------3------------3---------3----------3------------
3|----2------------0---------0----------0--------------
4|--0------------0---------0----------0----------------
5|-------------3---------2----------1------------------
6|-----------------------------------------------------

      Re menor  
1|--------1^0------0-------------3^2-------------------
2|------3------3---------------2-----------------------
3|----2----------2-----------2--------Re m,LA7,Rem,LA7-
4|--0----------------------2---------------------------
5|-----------------------------------------------------
6|-----------------------------------------------------

                                               
Hermano te voy a contar una historia de amor, de una tierra en el mar y de su revolución

rem, la7, rem, la7                       rem        solm la7 rem la7
Aah..                       y dijo el troveroo..
rem             solm    La7 rem
cuando salia la luna lunera,
                solm    la7 rem   
asi cantaba mi vieja mulata
               solm la7     rem            
detrás de una leja na estrella 
                    do     solm la7 rem la7
hay una habana de plata    aaahh
fa
y un dia recogí mi alma

y le rezé a los cuatro vientos

ya no aguanto mas la espera 
                                           do
me voy pa cai mi negra , en un barco carbonero
                 solm
y caminito a mi sueño
    la7                 rem la7 solm
el viento llevaba este son, son son
        la7            rem
y yo compuse esta canción
    la7
pensando en ti


** solo de trompeta **

solm
deja que cruce tus puertas , princesita marinera
                                        la7
que siguen siendo tus besos , mii ceguera
rem              solm la7 rem  
aqui me tienes a tu verita
                      solm  la7 rem
formando castillos de en el cielo
                solm  la7 rem
vengo a curarte las heridas
               solm   la7 rem
con las balas de un bolero
              solm    la7 rem 
que si mi si no es quererte
            solm     la7 rem
querer, que yo te quiera
          solm   la7 rem             
yo reniego de mi sangre,
            solm    la7  
de mi casa y mi bandera
rem
son son son, de la revolución, son son son de la revolución
                      rem la7 
mire usted, q mire usted ,

que mire la banda que buena es
rem                      solm la7 rem
que mi guitarra ya se va revelando, 
                           solm la7 rem
que mi lenguita ya se esta envenenando
                           sol, la7 rem
que pa vivir ay que morir , matando
                                                                    rem la7                  rem
hermano te voy a contar una historia de amor de una tierra en el mar          y de su revolución


** Dedicada a Antonio Martinez Ares , un tio con una pluma q se sale, para ti pishita, y por ti, 
va la presentación de tu comparsa que siempre me ha gustado, y siempre esperando que algún dia vuelvas 
al mundo de donde naciste, y en el que te criaste ** 

cádiz a 11 marzo 2004
		   
AcordesyTabs.com © 2008 Acordes y Tablaturas para guitarra. Tabs and Chords for guitar. Aviso Legal - Contacto
El uso de este sitio está sujeto a la aceptación de los términos y condiciones (19 usuarios online)