tablaturas, partituras y acordes para guitarra
Busca por banda/artista:
 
y/o título de la canción:
A B C D E F G H I J K L M N O P Q R S T U V W X Y Z 0 1 2 3 4 5 6 7 8 9 / Top 100 tabs
Categorías
Usuarios
usuario:
Darse de alta
password:
Artistas más visitados
Publicidad
TOP acordes y tablaturas de Evanescence


Estás en: Inicio > Letra E > Acordes y tablaturas de Evanescence > My Immortal 1
My Immortal 1
de Evanescence
Puntúa este acorde/tab:      
(0.2/5)
Reportar este acorde/tab
  Añadir a tus favoritos
  Imprimir
My Immortal by Evanescence
Transcribed by Marcelo Garcia aka linkinparksux
(Gfrunku@aol.com for you linkin park/limp biskit loving morons)

I tabbed this song because the other entry in this website is a half step too hi
tuning is unnecessarily altered. Save that for Zeppelin's "Rain Song". No offens
If that is the way the band plays it, I'm sorry... but not that sorry. This tran
feel, follows the piano a little better and can be played by a beginner who cann
a guitar. Enjoy!

Standard tuning:
E-first string
B-second string
G-third string
D-fourth string
A-fifth string
E-sixth string

Rhythm 1=down beat +=up beat

Verses:
  A     C#m   A    C#m

E----------9---5-------------9------------7---5-------------9--]
B------5-----5---5-------9------------5-----5---5-------9------]
G----6---6-------------9---9--------6---6-------------9---9----]    repeat throu
D--7----------------11------------7----------------11----------]
A--------------------------------------------------------------]
E--------------------------------------------------------------]


Pre-chorus:

   F#m   C#m    E

E--2-----4-----4---]   E--0--]
B--2-----5------5--]   B--0--]
G--2-----6----6--6-]repeat thrice: resolve w/  G--1--]
D--4-----6---------]   D--2--]
A--4-----4---------]   A--2--]
E--2---------------]   E--0--]

   1 + 2 + 3 + 4 +

Chorus:

   F#m   D           E     C#m         

E--2-----2---2---2-2-0-----4---4----]
B--2-----3---3---3-3-0-----5---5----]
G--2-----2---2---2-2-1-----6---6----]
D--4-----0---0---0-0-2-----6---6----]
A--4-----------------2-----4---4----]
E--2-----------------0--------------]

   1 + 2 + 3 + 4  +  1 + 2 + 3 + 4  

   F#m   D           E     C#m

E--2-----2---2---2-2-0-----4---4----]
B--2-----3---3---3-3-0-----5---5----]
G--2-----2---2---2-2-1-----6---6----]
D--4-----0---0---0-0-2-----6---6----]
A--4-----------------2-----4---4----]
E--2-----------------0--------------]

   1 + 2 + 3 + 4  +  1 + 2 + 3 + 4 + 

   F#m   D           E     C#m

E--2-----2---2---2-2-0-----4---4----]
B--2-----3---3---3-3-0-----5---5----]
G--2-----2---2---2-2-1-----6---6----]
D--4-----0---0---0-0-2-----6---6----]
A--4-----------------2-----4---4----]
E--2-----------------0--------------]

   1 + 2 + 3 + 4  +  1 + 2 + 3 + 4 + 

   F#m   D           E     

E--2-----2---2---2-2-0-----------------]
B--2-----3---3---3-3-0-----------------]
G--2-----2---2---2-2-1-----------21---]
D--4-----0---0---0-0-2--------------2--]
A--4-----------------2---------------2-]
E--2-----------------0----------------0]

   1 + 2 + 3 + 4  +  1 + 2 + 3 + 4  + 1

Bridge:  

D             F#m           E                 D
I've tried so hard to tell myself that you're gone


                       E
but though you're still with me

C#m       Bm

I've been alone 

      F#m-pick up into chorus

I'm alone

... by the way, Bm is fingered..

E-2-]
B-3-]
G-4-]
D-4-]
A-2-]
E---]
		   
AcordesyTabs.com © 2008 Acordes y Tablaturas para guitarra. Tabs and Chords for guitar. Aviso Legal - Contacto
El uso de este sitio está sujeto a la aceptación de los términos y condiciones (50 usuarios online)