tablaturas, partituras y acordes para guitarra
Busca por banda/artista:
 
y/o título de la canción:
A B C D E F G H I J K L M N O P Q R S T U V W X Y Z 0 1 2 3 4 5 6 7 8 9 / Top 100 tabs
Categorías
Usuarios
usuario:
Darse de alta
password:
Artistas más visitados
Publicidad
TOP acordes y tablaturas de Evanescence


Estás en: Inicio > Letra E > Acordes y tablaturas de Evanescence > My Immortal Real Version
My Immortal Real Version
de Evanescence
Puntúa este acorde/tab:      
(0.2/5)
Reportar este acorde/tab
  Añadir a tus favoritos
  Imprimir
Evanescence- My Immortal (actual version)
(standard tuning)


main theme:

    A               c#m                 Aadd9           c#m
e-----------------------------------------------------------
b-----------2------------------2----------0---------------2-
g-------2-------2---------1-----------2-------2-------1-----
d-----2---2---2---2----2----2-------2---2---2---2---2---2---
a---0---------------4-------------0---------------4---------
E-----------------------------------------------------------

c#m chords can also be played with ghost notes:

e---------------------
b----------2----------
g------1--------(1)---
d----2---2---(2)---(2)
a--4------------------
E---------------------

pre-chorus chords:

    f#m    c#m     E
e----2-------------0-----
b----2-------------0-----
g----2------1------1-----
d----4------2------2-----
a----4------4------2-----
E----2-------------0-----

chorus chords:

    f#m    D    E     c#m       ..but you still have (E and Esus4)
e----2-----2----0------------              -------------   
b----2-----3----0------------              -------------    
g----2-----2----1------1-----              --2-1-------- 
d----4-----0----2------2-----              ------2------ 
a----4----------2------4-----              --------2----
E----2----------0------------              ----------0-- 

bridge chords:

   D    f#m    E    bm   c#m  
e--2-----2-----0-----------------
b--3-----2-----0-----3-----------
g--2-----2-----1-----4----1------
d--0-----4-----2-----4----2------
a--------4-----2-----2----4------
E--------2-----0-----------------



MAIN THEME

[VERSE 1:]
A                         c#m
I'm so tired of being here
Aadd9                c#m
Suppressed by all my childish fears
A
And if you have to leave
c#m
I wish that you would just leave
Aadd9
'Cause your presence still lingers here
c#m                     f#m
And it won't leave me alone

[PRE-CHORUS:]
c#m                         f#m
These wounds won't seem to heal
c#m                    f#m
This pain is just too real
c#m                         E
There's just too much that time cannot erase


[CHORUS:]
f#m        D         E         c#m
When you cried I'd wipe away all of your tears
f#m          D          E        c#m
When you'd scream I'd fight away all of your fears
f#m D         E          c#m
I held your hand through all of these years
f#m      D      E    (Esus4 lick here)
But you still have
        (main theme)
All of me


[VERSE 2:]
A  
You used to captivate me
c#m
By your resonating light
A                       c#m
Now I'm bound by the life you left behind
A
Your face it haunts
c#m
My once pleasant dreams
A
Your voice it chased away
c#m               f#m
All the sanity in me


[PRE-CHORUS]

[CHORUS]

[BRIDGE:]
D              f#m          E                   D
I've tried so hard to tell myself that you're gone
   bm                     c#m
But though you're still with me
D           E
I've been alone all along

[CHORUS CHORDS/ INSTRUMENTAL] (if you want the piano solo its just intervals of 

[Chorus]

end.

isn't it nice to finally have the correct version in the correct key?
any questions or comments my email is cavalier1623@hotmail.com




		   
AcordesyTabs.com © 2008 Acordes y Tablaturas para guitarra. Tabs and Chords for guitar. Aviso Legal - Contacto
El uso de este sitio está sujeto a la aceptación de los términos y condiciones (42 usuarios online)