tablaturas, partituras y acordes para guitarra
Busca por banda/artista:
 
y/o título de la canción:
A B C D E F G H I J K L M N O P Q R S T U V W X Y Z 0 1 2 3 4 5 6 7 8 9 / Top 100 tabs
Categorías
Usuarios
usuario:
Darse de alta
password:
Artistas más visitados
Publicidad
TOP acordes y tablaturas de Evanescence


October
de Evanescence
Puntúa este acorde/tab:      
(0.1/5)
Reportar este acorde/tab
  Añadir a tus favoritos
  Imprimir

"October"
by Evanescence

Tabbed by Jon Donahue

Standard tuning

Intro/Verse (this section isn't complete, but it's almost the entire verse):

E-------------------------------------------------------------------------------
B-------------------------------------------------------------------------------
G--------0-----------0--------------------0-----------0-----------0h2-----------
D--------------3-----------3-----3--------------3-----------3-------------------
A-----3------3-----3-----3-----3---3---3------3-----3-----3-----3---------------
E---1------1-----1-----1-----1-------1------1-----1-----1-----1-----------------

E-------------------------------------------------------------------------------
B-------------------------------------------------------------------------------
G-------------0-----2-----0-----------------0-----3-----2-----------------------
D-------3-----------------------3-----3-----------------------3-----------------
A-----3-----3-----3-----3-----3-----3-----3-----3-----3-----3-------------------
E---1-----1-----1-----1-----1-----1-----1-----1-----1-----1---------------------

Chorus (chords/strumming):

F  Dm  Bb  C  F  Dm  Bb  F

(for chord fingerings see end of tab)

Lyrics:

Verse 1:

I can't run anymore,
I fall before you,
Here I am,
I have nothing left,
Though I've tried to forget,
You're all that I am,
Take me home,
I'm through fighting it,
Broken,
Lifeless,
I give up,
You're my only strength,
Without you,
I can't go on,
Anymore,
Ever again.

Chorus:

  F           Dm
    My only hope,
    (All the times I've tried) 

              Bb
    My only peace,
    (To walk away from you)

             C
    My only joy,

             F
    My only strength,
    (I fall into your abounding grace)

             Dm
    My only power,

             Bb
    My only life,
    (And love is where I am)

             F
    My only love.

Verse 2: 

I can't run anymore,
I give myself to you,
I'm sorry,
I'm sorry,
In all my bitterness,
I ignored,
All that's real and true,
All I need is you,
When night falls on me,
I'll not close my eyes,
I'm too alive,
And you're too strong,
I can't lie anymore,
I fall down before you,
I'm sorry,
I'm sorry.

Chorus:

My only hope,
(All the times I've tried) 
My only peace,
(To walk away from you)
My only joy,
My only strength,
(I fall into your abounding grace)
My only power,
My only life,
(And love is where I am)
My only love.

Bridge:

Constantly ignoring,
The pain consuming me,
But this time it's cut too deep,
I'll never stray again.

Chorus/Outro:

My only hope,
(All the times I've tried) 
My only peace,
(To walk away from you)
My only joy,
My only strength,
(I fall into your abounding grace)
My only power,
My only life,
(And love is where I am)
My only love,
My only hope,
(All the times I've tried) 
My only peace,
(To walk away from you)
My only joy,
My only strength,
(I fall into your abounding grace)
My only power,
My only life,
(And love is where I am)
My only love.

_________________________________________________________________________

Chords Used:

(Note: I have given the bar-chord fingering for all the chords used in 
this song.  Open chords can be used, but the song sounds better using 
bar chords.)

        F           Dm            Bb            C

E-------1------------5------------6-------------8---
B-------1------------6------------6-------------8---
G-------2------------7------------7-------------9---
D-------3------------7------------8-------------10--
A-------3------------5------------8-------------10--
E-------1------------5------------6-------------9---















		   
AcordesyTabs.com © 2008 Acordes y Tablaturas para guitarra. Tabs and Chords for guitar. Aviso Legal - Contacto
El uso de este sitio está sujeto a la aceptación de los términos y condiciones (43 usuarios online)