tablaturas, partituras y acordes para guitarra
Busca por banda/artista:
 
y/o título de la canción:
A B C D E F G H I J K L M N O P Q R S T U V W X Y Z 0 1 2 3 4 5 6 7 8 9 / Top 100 tabs
Categorías
Usuarios
usuario:
Darse de alta
password:
Artistas más visitados
Publicidad
TOP acordes y tablaturas de Evanescence


Solitude
de Evanescence
Puntúa este acorde/tab:      
(0.4/5)
Reportar este acorde/tab
  Añadir a tus favoritos
  Imprimir

 Evanescence
 Solitude Guitar tab
 
 Well, this is my first tab so, don't expect any masterpiece
 Let me know what you think. jonh_doe69@hotmail.com

 Standard Tunning

  ...2, 3, 4...
 Intro:
 |---------------------------0---------------|
 |--------------------0----------------------|
 |-----0---0-----0--------0----0-------------|
 |----0---0-----0----0---0------2------------|
 |-2/3---2---2-3----3---2----3---------------|
 |-------------------------------------------|

 |--0-------------------0-------------------------|     How many times hace you 
 |--------0-------0---0---0-----------------------|     
 |----0--------0----0---------0----0---0-----0----|(4x) As many times as I wante
 |--2--2--1---1---0---------0-----0---0-----0-----|     
 |----------------------4--------3---2---2-3------|     How long have I stood he
 |------------------------------------------------|
                                                        I lived through you, you

 |----------------------0--------------------------0---| 
 |-------1---------------0-------3----1^0--------------| Ooo, solitude
 |----0---0--0------0-----0-----0-0------0------0------| Still with me
 |---2-2-----------2-2-----2---2---2------2----2-2-----| is only you
 |--3-------3-----------------3------------------------| 
 |---------------0---------------------------0---------|

 |----------------------0--------------------0-------------------0--------------
 |-------1---------------0-------3----1^0----------0-------0---0---0------------
 |----0---0--0------0-----0-----0-0------0-----0--------0----0---------0----0---
 |---2-2-----------2-2-----2---2---2------2--2--2--1---1---0---------0-----0---0
 |--3-------3-----------------3----------------------------------4--------3---2-
 |---------------0--------------------------------------------------------------

 |--0-------------------0-------------------------|     How many times have I do
 |--------0-------0---0---0-----------------------|     
 |----0--------0----0---------0----0---0-----0----|(4x) How long will it take be
 |--2--2--1---1---0---------0-----0---0-----0-----|    
 |----------------------4--------3---2---2-3------|     When will this hole in h
 |------------------------------------------------|    
                                                        Who now is left alone bu

 |----------------------0--------------------------0---| 
 |-------1---------------0-------3----1^0--------------| Ooo, solitude
 |----0---0--0------0-----0-----0-0------0------0------| forever me
 |---2-2-----------2-2-----2---2---2------2----2-2-----| and forever you
 |--3-------3-----------------3------------------------| 
 |---------------0---------------------------0---------|

 |----------------------0--------------------------0---|
 |-------1---------------0-------3----1^0--------------| Ooo, solitude
 |----0---0--0------0-----0-----0-0------0------0------| only you,
 |---2-2-----------2-2-----2---2---2------2----2-2-----| only true
 |--3-------3-----------------3------------------------|
 |---------------0---------------------------0---------|

 |----------------------0--------------------------0------|
 |-------1---------------0-------3----1^0-----------------| Everyone leaves me s
 |----0---0--0------0-----0-----0-0------0------0------0--| forgotten, abandoned
 |---2-2-----------2-2-----2---2---2------2----2-2----2-2-| left behind.
 |--3-------3-----------------3---------------------------| 
 |---------------0---------------------------0------------|

     I can't stay here another night...
 |---3--------5---------------------------------------|
 |---3--------5---------------------------------------|
 |---5--------7-------------------------0---0-----0---|
 |---5--------7------------------------0---0-----0----|
 |---3--------5--------------------2--3---2---2-3-----|
 |---3--------5---------------------------------------|

       Your secret  |who could
            admirer,|   it be?
 |-------------------------------------------0-------------0--0-3-0---|
 |----0-----------------------0---0-------0----------0--0-0-0----0-0--|
 |--------0-----0-----0---0----0-0-0-0-----0------0-0-0--0---0--------|
 |---0---0-----0-----0---0------2---2---2---2----2-2---2--------------|
 |--3---2---2-3-----3---2-----------------------3---------------------|
 |----------------------------0---------------------------------------|
  
 |--3--0--3--0--3--0--3--0----3--0--3--0--3--0--3--0----3--0--3--0--3--0--3--0--
 |--3--0--3--0--3--0--3--0----3--0--3--0--3--0--3--0----3--0--3--0--3--0--3--0--
 |--5--0--5--0--5--0--5--0----5--0--5--0--5--0--5--0----5--0--5--0--5--0--5--0--
 |--5--2--5--2--5--2--5--2----5--2--5--2--5--2--5--2----5--2--5--2--5--2--5--2--
 |--3--2--3--2--3--2--3--2----3--2--3--2--3--2--3--2----3--2--3--2--3--2--3--2--
 |--3--0--3--0--3--0--3--0----3--0--3--0--3--0--3--0----3--0--3--0--3--0--3--0--
 (Repeat till it fades)

		   
AcordesyTabs.com © 2008 Acordes y Tablaturas para guitarra. Tabs and Chords for guitar. Aviso Legal - Contacto
El uso de este sitio está sujeto a la aceptación de los términos y condiciones (50 usuarios online)