tablaturas, partituras y acordes para guitarra
Busca por banda/artista:
 
y/o título de la canción:
A B C D E F G H I J K L M N O P Q R S T U V W X Y Z 0 1 2 3 4 5 6 7 8 9 / Top 100 tabs
Categorías
Usuarios
usuario:
Darse de alta
password:
Artistas más visitados
Publicidad
TOP acordes y tablaturas de Evanescence


Whisper
de Evanescence
Puntúa este acorde/tab:      
(0.4/5)
Reportar este acorde/tab
  Añadir a tus favoritos
  Imprimir
Artist: Evanescence
Album: Fallen
Song: Whisper
Tabbed by: Chris Engel

Forenote: Okay this songs main riff has supposedly been tabbed out already, but 
and it is quite poorly put together. This is a more complete version of the song
most if not all guitar parts of the song. I hope this version is more helpful in
song from an even greater band. Some parts such as the last part of section B ar
plays a weird appregio of some sort, but this variation will suffice.

Tuning: Dropped-D Low to High: D, A, d, g, b, e

Symbol Key:
SymbolMeaning

*Palm mute
/Slide up fretboard (ex. 1 /4)
Slide down fretboard (ex. 4 1)
H Hammer-on (ex. 3H5)
PPull-off (ex. 5P3)
P.h.Pinch Harmonic
N.h.Natural Hormonic

Section A :Opening Riff
------------------------------------------|-------------------------------------
------------------------------------------|-------------------------------------
------------------------------------------|-------------------------------------
------------------------------------------|-------------------------------------
----5-----5--6--------5-----5--6-------3--|----5-----5--6--------5-----8-6---5/
-0-----0--------0--0-----0-------0-3H5----|-0-----0--------0--0-----0-------0---
 *     *        *  *     *       *          *     *        *  *     *       *

Guitar goes quiet for a while.

Section B :Chorus
“…If I will it all away!!!”
-----------------------------------------------------
-----------------------------------------------------
-----------------------------------------------------
-----------------------------------------------------
--0---8--10---0----8---5---2-2-2-3P2-2-2-2-3P2-2-2---
--0---8--10---0----8---5---2-2-2-3P2-2-2-2-3P2-2-2---Repeat Twice
Note:1~~~~~~~~~~~~~~~~~~(see below)

Then it does the opening riff once, and on to this part.
Now this next part is tricky…It can barely be heard, but with a few neat program
transcribe it. This is not exactly what is played, I’m sure. But it’s as close a
it is play with tons of fuzz and a wah pedal. If you have either you should do j

Section C 
----------------------------------|----------------------------------|
----------------------------------|----------------------------------|
--7-x-7-x-7-8-x-7-x-7-x-7-8-x-5-5-|--7-x-7-x-7-8-x-7-x-7-x-7-5-x-5-5-|
--x-x-x-x-x-x-x-x-x-x-x-x-x-x-x-x-|--x-x-x-x-x-x-x-x-x-x-x-x-x-x-x-x-|
--5-x-5-x-5/6-x-5-x-5-x-5/6-x-3-3-|--5-x-5-x-5/6-x-5-x-5-x-5-3-x-3-3-|
----------------------------------|----------------------------------|
Section D
Then on to this part. Sustain all the notes.
----------------------------------|
----------------------------------|
--7---9---12---10-----------------|
--x---x----x---x------------------|
--5---7---10---8------------------|
----------------------------------|Then repeat the riff from Section B once and 
section heard under the choir chanting.

Section E
Then this bassy palm-muted part.
-------------------|-------------------------|
-------------------|-------------------------|
-------------------|-------------------------|
-------------------|-------------------------|
--0-0----0--0-0----|--0-0----0-0-0-0-0-0-0---|
--0-0----0--0-0----|--0-0----0-0-0-0-0-0-0---|
  * *    *  * *       * *    * * * * * * *  
Above 3x then next bar…All palm-muted. Listen to the track to get the exact beat

Section F
And now the “solo”…I would call this part more of an interlude.  It isn’t really
music who needs a solo. These tablature is only the chord positions used for the
tablature imply timing or even strum pattern. Listening to the CD should give yo
strum pattern.
--------------------------------------------------------------------------------
--------------------------------------------------------------------------------
---14--12--14-15-14---12--10-12--14--12----10-9--10-12---10--10--10--10--10-----
----x---x---x--x--x----x--x---x---x---x----x--x--x---x---x---x---x---x---x------
---12--10--12-13-12---10--8--10--12--10----8--7--8--10---8p7-8p7-8p7-8p7-8p7----
--------------------------------------------------------------------------------

-----------------------------------------------------------------------------|
-----------------------------------------------------------------------------|
--10-9-10-12--10-9----14--15-14-15--17-15-14--10-12--14--9--10-12--14~~~~~---|
--x--x-x---x--x--x-----x---x--x--x---x--x--x--x---x---x--x--x---x------------|
--8--7-8--10--8--7----12--13-12-13--15-13-12--8--10--12--7--8--10------------|
-----------------------------------------------------------------------------|
After the above part play section B’s riff with the first D5 and Bb5 chord silen
Then after that just play section E’s riff to the end of the song.

NOTE 1. Each note with "~" beneath it depicts that the note(s) should be strumme
tablature takes up much more space than transcriptions it is more practical to u

That’s about the whole song. If I left out any parts or if you have any suggesti
please feel free to contact me at SnakeCharmerAZ@aol.com
Thank you and enjoy.







		   
AcordesyTabs.com © 2008 Acordes y Tablaturas para guitarra. Tabs and Chords for guitar. Aviso Legal - Contacto
El uso de este sitio está sujeto a la aceptación de los términos y condiciones (46 usuarios online)