tablaturas, partituras y acordes para guitarra
Busca por banda/artista:
 
y/o título de la canción:
A B C D E F G H I J K L M N O P Q R S T U V W X Y Z 0 1 2 3 4 5 6 7 8 9 / Top 100 tabs
Categorías
Usuarios
usuario:
Darse de alta
password:
Artistas más visitados
Publicidad
TOP acordes y tablaturas de Tierra Santa


Estás en: Inicio > Letra T > Acordes y tablaturas de Tierra Santa > La Torre de Babel
La Torre de Babel
de Tierra Santa
Puntúa este acorde/tab:      
(0.9/5)
Reportar este acorde/tab
  Añadir a tus favoritos
  Imprimir
Intro
e|----------------------------------------------------------|
B|----------------------------------------------------------|
G|----------------------------------------------------------|
D|-0--0-0-0-3-2-0--0-0-0-3-2-0--0-0-0-3-2----------3-2-0--0-|
A|----------------------------------------1--1-1-1----------|
E|----------------------------------------------------------|

Letra (1ra parte)
e|-----------------------------|
B|-----------------------------|
G|-7---7---5---7---5---3--5--7-|
D|-7---7---5---7---5---3--5--7-|
A|-5---5---3---5---3---1--3--5-|
E|-----------------------------|

Letra (2da parte)
e|------------------------------------|
B|------------------------------------|
G|------------5-------------5---3---5-|
D|-0000000000-5--0000000000-5---3---5-|
A|------------3-------------3---1---3-|
E|------------------------------------|

Coro
e|---------------------------|
B|---------------------------|
G|-----3-------5-------3---5-|
D|-5---3---5---5---5---3---5-|
A|-5---1---5---3---5---1---3-|
E|-3-------3-------3---------|

Interludio (1ra parte)
e|-------------------------------------------------------------------|
B|-------------------------------------------------------------------|
G|-------------------------------------------------------------------|
D|-0-7-5-3-2-3-0-2-0-2-3-5-7-5-3-2---0-7-5-3-2-3-2-----2-3-5-7-5-3-2-|
A|-------------------------------------------------3-3---------------|
E|-------------------------------------------------------------------|

Interludio (2da parte)
e|------------------------------------------|
B|------------------------------------------|
G|------------------------------------------|
D|-7-000-5-000-4-00-55--5-000-3-000-2-00----|
A|---------------------------------------33-|
E|------------------------------------------|

Ritmo de solo 
e|-----------------------------------------------------------------|
B|-----------------------------------------------------------------|
G|-----------------------------------------------------------------|
D|-----------------------------------------------------------------|
A|-555555555555555-33333333333333-555555555555555-3333333333333333-|
E|-----------------------------------------------------------------|

e|--------------------------------------------------------------------|
B|--------------------------------------------------------------------|
G|--------------------------------------------------------------------|
D|--------------------------------------------------------------------|
A|-111111111-33333333-111111111-333333333-111111111-33333333-55555555-|
E|--------------------------------------------------------------------|

Ritmo de Final (1ra parte)
e|----------------------------------|
B|----------------------------------|
G|----------------------------------|
D|----------------------------------|
A|-5555555555-1111111111-3333333333-|
E|----------------------------------|

Ritmo de Final (2da parte)
e|----------------------------------|
B|----------------------------------|
G|----------------------------------|
D|----------------------------------|
A|-7777777777-3333333333-5555555555-|
E|----------------------------------|

Final 
e|-------------------|
B|-------------------|
G|-7-----5---7---9/0-|
D|-7-----5---7---9/0-|
A|-5-----3---5---7/0-|
E|-------------------|

ESTRUCTURA
Intro x4
Letra (1ra parte)
Intro
Letra (2da parte)
Intro x2
Coro
Interludio (1ra parte) x2
Interludio (2da parte) x2
Ritmo de solo 
Interludio (2da parte)
Letra (1ra parte) 
Intro 
Letra (2da parte)
Intro x2
Coro
Ritmo de Final (1ra parte) x2
Ritmo de Final (2da parte) x2
Final

Asi acaba mi cancion
Saludos a una persona que se llama Michelle
		   
AcordesyTabs.com © 2008 Acordes y Tablaturas para guitarra. Tabs and Chords for guitar. Aviso Legal - Contacto
El uso de este sitio está sujeto a la aceptación de los términos y condiciones (22 usuarios online)