tablaturas, partituras y acordes para guitarra
Busca por banda/artista:
 
y/o título de la canción:
A B C D E F G H I J K L M N O P Q R S T U V W X Y Z 0 1 2 3 4 5 6 7 8 9 / Top 100 tabs
Categorías
Usuarios
usuario:
Darse de alta
password:
Artistas más visitados
Publicidad
TOP acordes y tablaturas de Attaque 77


Ladrón
de Attaque 77
Puntúa este acorde/tab:      
(0.7/5)
Reportar este acorde/tab
  Añadir a tus favoritos
  Imprimir
      D5-        D5-     A#5-      A#5-   G5- G5- A5- A5
Es aquel señor elegante que viene acercándose
el es un pirata, no caigas en su trampa jamás.
        D5-           D5-            A#5-   A#5-
Como un alma en pena se empieza a arrastrar
       G5-            G5-    * A5-   A5-
y es una serpiente a punto de atacar.
  D5                        A#5
Cuenta sus tesoros en la intimidad
G5                     A5
y llora miserias ante los demás.

    D5-D5 D5-G5
Ladrón,   ya no robes más
C5                   A5 (**)
  lo que trabajaron los demás.
    D5-D5 D5-G5
Ladrón,   ya no robes más
C5                    A5
  lo que nunca te vas a ganar.

Entregaste tu alma al culto del menor esfuerzo.
Nada te interesa, nada que no venda más.
Cuánta sangre ajena te llevaste ya
de todas las guerras que nun (*) ca peleás.
No tenés honor, sos una rata más.
Si cuando se hunde el barco nunca estás.

Ladrón, ya no robes más
lo que trabajaron los de (**) más.
Ladrón, ya no robes más
lo que nunca te vas a ganar.

Solo (D5 C5 G5-G5-G5)x2
                                            _
   D5                 C5           G5-G5-G5  |
e--------------|   |--------------|          |    
B--7---7-8-7-7-|   |--5---5-6-5-5-|          |
G--7---7-7-7-7-|x2 |--5---5-5-5-5-|           > x2
D--------------|   |--------------|          |
A--------------|   |--------------|          |
E--------------|   |--------------|         _|

   A
¿Cuál es tu juego?
¿Cuál es tu juego?
¿Cuál es tu juego?
                  A
¿Cuál es tu juego?

Como un buitre que va deslizándose por el cielo
buscando una presa jóven, fácil de atacar
vendes tu bandera al mejor postor
todos saben bien que sos un  (***)impostor.
Hoy estas acá mañana estas allá
 G                         A5
hasta que no caigas no vas a parar.

Ladrón, ya no robes más
lo que trabajaron los de (**) más.
Ladrón, ya no robes más
lo que nunca te vas (****) a ganar.

Ladrón, ya no robes más
lo que trabajaron los de (**) más.
Ladrón, ya no robes más                         D5-D5-C5-D5 (no dejar sonando)
lo que nunca te vas (*****) a ganar es tu dignidad.



==============================================================================
*en los acordes que siguen con '- ' (ej: A#5-),
 se toca una vez y se hace palm mute.

------------------------------------------------------------------------------
*('de atacar', 'nunca peleás'):
e-----------------|
B-----------------|
G-----------------|
D--5/65-3/53----|
A--------------5--|
E-----------------|

------------------------------------------------------------------------------
**(demás):
e------|
B---5--|
G--6---|
D------|
A------|
E------|

------------------------------------------------------------------------------
***(impostor):
e----------------|
B----------------|
G----------------|
D--55555-3-------|
A---------5-3-5--|
E----------------|

------------------------------------------------------------------------------
****(vas a ganar):
e---------|   |---|
B-------9-|x3 |-9-|
G--9-11-9-|   |-9-|
D---------|   |---|
A---------|   |---|
E---------|   |---|

------------------------------------------------------------------------------
*****(vas a ganar  es tu digni)
e-------------|   |-----------|
B-------10-10-|   |-------10--|
G--9/10-10-10-|x2 |--9/10-10--|x2
D-------------|   |-----------|
A-------------|   |-----------|
E-------------|   |-----------|

==============================================================================
/ = Slide Up
 = Slide Down
		   
AcordesyTabs.com © 2008 Acordes y Tablaturas para guitarra. Tabs and Chords for guitar. Aviso Legal - Contacto
El uso de este sitio está sujeto a la aceptación de los términos y condiciones (39 usuarios online)