tablaturas, partituras y acordes para guitarra
Busca por banda/artista:
 
y/o título de la canción:
A B C D E F G H I J K L M N O P Q R S T U V W X Y Z 0 1 2 3 4 5 6 7 8 9 / Top 100 tabs
Categorías
Usuarios
usuario:
Darse de alta
password:
Artistas más visitados
Publicidad
TOP acordes y tablaturas de Peor Es Nada


Estás en: Inicio > Letra P > Acordes y tablaturas de Peor Es Nada > Final confuso
Final confuso
de Peor Es Nada
Puntúa este acorde/tab:      
(0.5/5)
Reportar este acorde/tab
  Añadir a tus favoritos
  Imprimir
El bajo entra después de la intro de las guitarras

G------------------------------------------------------------------|
D------------------------------------------------------------------|
A------------------7--7-7-7-7-7-7--9--9-9-9-9-9-9--5--5-5-5-5-5-5--|
E--5--5-5-5-5-5-5--------------------------------------------------|

Esto se repite muchas veces

G---------------------------------------|
D---------------------------------------|
A------------------7-7-7-7-7-7-7-7--5---|
E--5--5-5-5-5-5-5-----------------------|


Coro. 'El final es igual...'

G----------------------------------|------------------------------|
D----------------------------------|------------------------------|
A--5--5-5-5-5-5--7--7-7-7-7-7-7-7--|------------------------------|
E----------------------------------|--5-5-5--4-4-4--2-2-2--0-0-0--|x3

G----------------------------------|----------------------------------|
D----------------------------------|----------------------------------|
A--5--5-5-5-5-5--7--7-7-7-7-7-7-7--|--5--5-5-5-5-5--7--7-7-7-7-7-7-7--|
E----------------------------------|----------------------------------|

G------------------------------|
D------------------------------|
A------------------------------|
E--5-5-5--4-4-4--2-2-2--0-0-0--|

G----------------------------------|------------------------------|
D----------------------------------|------------------------------|
A--5--5-5-5-5-5--7--7-7-7-7-7-7-7--|------------------------------|
E----------------------------------|--5-5-5--4-4-4--2-2-2--0-0-0--|

G----------------------------------|--------------|
D----------------------------------|--------------|
A--5--5-5-5-5-5--7--7-7-7-7-7-7-7--|--------------|
E----------------------------------|--5--4--2--0--|

G----------------------------------|------------------------------|
D----------------------------------|------------------------------|
A--5--5-5-5-5-5--7--7-7-7-7-7-7-7--|------------------------------|
E----------------------------------|--5-5-5--4-4-4--2-2-2--0-0-0--|

G----------------------------------|----------|
D----------------------------------|----------|
A--5--5-5-5-5-5--7--7-7-7-7-7-7-7--|----------|
E----------------------------------|--5---5---|

Letra:
Necesito un poco de tiempo, para saber lo que quiero.
Necesitas tiempo tu tambien, para que puedas ya crecer.
Necesitas evolucionar, debes darte esa oportunidad
de enfrentar esas actitudes que, que te hicieron perderte.
No vuelvo a pensar por ti de nuevo.. no me quiero complicar!
No vuelvo a pensar por ti de nuevo.. es mas facil esperar!
No mas supociciones solo hechos.... no mas supociciones..

Y al final es igual, es amar es odiar y ya no quiero razonar
al final es igual, para bien para mal, prefiero hacerme el loco y creer que todo es un
sueño , no se si quiera soñar
solo se quiero vivir, quiero escaparme, irme a un cerro y olvidarme y olvidarte, olvidarlos
recordarlos, y no se!!!!!
al final es igual, porque se que tu simpre me interpretas para mal...
al final es igual, para bien para mal, prefiero hacerme el loco y creer que todo es
sueño, no se si quiera soñar, solo se...
quiero vivir!!
quiero escaparme!!
irme a un cerro
y olvidarme!!
y olvidarte!!
olvidarlos recordarlos.............

Ahi ta too
El bajo es super simple.
		   
AcordesyTabs.com © 2008 Acordes y Tablaturas para guitarra. Tabs and Chords for guitar. Aviso Legal - Contacto
El uso de este sitio está sujeto a la aceptación de los términos y condiciones (19 usuarios online)