tablaturas, partituras y acordes para guitarra
Busca por banda/artista:
 
y/o título de la canción:
A B C D E F G H I J K L M N O P Q R S T U V W X Y Z 0 1 2 3 4 5 6 7 8 9 / Top 100 tabs
Categorías
Usuarios
usuario:
Darse de alta
password:
Artistas más visitados
Publicidad
TOP acordes y tablaturas de Peor Es Nada


Estás en: Inicio > Letra P > Acordes y tablaturas de Peor Es Nada > Final confuso
Final confuso
de Peor Es Nada
Puntúa este acorde/tab:      
(0.5/5)
Reportar este acorde/tab
  Añadir a tus favoritos
  Imprimir
Intro

E---------------------|
B---------------------|
G-7-7--6-6--7-7--9-9--|
D---------------------|
A---------------------|
E---------------------|
|                     |
E---------------------|
B---------------------|
G---------------------|
D---------------------|
A-5-5--4-4--2-2--0-0--|
E---------------------|

Verso:

Guitarras: 1 y 2 Al principio con Palm mute y después normal

                    Rem
E-------------|----|-1-
B-------------|----|-3- la primera guitara
G----9--11-7--|-14-|-2- termina así
D-7--9--11-7--|-14-|-0-
A-7--7--9--5--|-12-|---
E-5-----------|----|---

Coro
    1          2           3          4             5
E--------|------------|--------|-------------|---------------------|
B--------|------------|--------|-------------|---------------------|
G-14--16-|-14-13-11-9-|-14--16-|-14-16-18-19-|-14--16-14-13--14-13-|
D-14--16-|-14-13-11-9-|-14--16-|-14-16-18-19-|-14--16-14-13--14-13-|
A-12--14-|-12-11-9--7-|-12--14-|-12-14-16-17-|-12--14-12-11--12-11-|
E--------|------------|--------|-------------|---------------------|
|        |            |        |             |                     |
E--------|------------|--------|-------------|---------------------|
B--------|------------|--------|-------------|---------------------|
G-7---9--|------------|-7---9--|-------------|-7---------9---------|
D-7---9--|-7--6--4--2-|-7---9--|-7--6--4--2--|-7---------9---------|
A-5---7--|-7--6--4--2-|-5---7--|-7--6--4--2--|-5---------7---------|
E--------|-5--4--2--0-|--------|-5--4--2--0--|---------------------|

Siguen las partes 2, 5 y se repite todo de nuevo

Luego la segunda guitarra hace la parte 2 mientras la uno hace puros LA

Después las partes 5, 2 y 5 y termina con la parte 4 (la 1ª guitarra) y puros LA (2ª)

Letra:
Necesito un poco de tiempo, para saber lo que quiero.
Necesitas tiempo tu tambien, para que puedas ya crecer.
Necesitas evolucionar, debes darte esa oportunidad
de enfrentar esas actitudes que, que te hicieron perderte.
No vuelvo a pensar por ti de nuevo.. no me quiero complicar!
No vuelvo a pensar por ti de nuevo.. es mas facil esperar!
No mas supociciones solo hechos.... no mas supociciones..

Y al final es igual, es amar es odiar y ya no quiero razonar
al final es igual, para bien para mal, prefiero hacerme el loco y creer que todo es un
sueño , no se si quiera soñar
solo se quiero vivir, quiero escaparme, irme a un cerro y olvidarme y olvidarte, olvidarlos
recordarlos, y no se!!!!!
al final es igual, porque se que tu simpre me interpretas para mal...
al final es igual, para bien para mal, prefiero hacerme el loco y creer que todo es
sueño, no se si quiera soñar, solo se...
quiero vivir!!
quiero escaparme!!
irme a un cerro
y olvidarme!!
y olvidarte!!
olvidarlos recordarlos.............

Eso es todo CHAOOOOOOOOOOOOOOO

AGUANTE PEOR ES NADA!!!!!!!!!!!!!
		   
AcordesyTabs.com © 2008 Acordes y Tablaturas para guitarra. Tabs and Chords for guitar. Aviso Legal - Contacto
El uso de este sitio está sujeto a la aceptación de los términos y condiciones (33 usuarios online)