tablaturas, partituras y acordes para guitarra
Busca por banda/artista:
 
y/o título de la canción:
A B C D E F G H I J K L M N O P Q R S T U V W X Y Z 0 1 2 3 4 5 6 7 8 9 / Top 100 tabs
Categorías
Usuarios
usuario:
Darse de alta
password:
Artistas más visitados
Publicidad
TOP acordes y tablaturas de Mago De Oz


Finisterra
de Mago De Oz
Puntúa este acorde/tab:      
(0.4/5)
Reportar este acorde/tab
  Añadir a tus favoritos
  Imprimir
qui esta el tab para bajo de una canción cortita (15:16)

  Intro: Oh finis oh terra

  G------------------
  D------------------
  A------------------
  E---0---0---0---0--

                    X4
  G--------------------------/-----
  D--------------------------/-----
  A---------7--7-------------/--7--
  E--5--5--------8--8-7--7-5-/-----

  Verso piano y bajo: Ayer como la nieve...

  G----------------------
  D----------------------
  A--7--9-7-9-10-9-7-9-7-
  E----------------------X10

  Cuando dice: Grita el silencio al sordo...
                                  
                                            X2
  G------------------------------------/-------------------------
  D------------------------------------/-------------------------
  A------------------7--7--------------/--7-7-7--7-7-7-7-7-7-7-7-
  E--8--8-7--7-5--8--------8--8-7--7-5-/-------------------------

  De nuevo la segunda parte del intro

  'Por fin te has decidido a venir...'

  G----------------------------------
  D---------------------------------- Después lo mismo pero
  A------7-7-7----------------------- con otro ritmo.
  E--5-----------7-7-7--5-5-5--7-7-7-

  Cuando dice: SI has aprendido... se toca que en la parte:
  grita el silencio... pero con más de una nota 

  'Hagamos una !Coalición!'

  G----------------------------------
  D----------------------------------
  A--7-7-7-7-7-7-7-7-----------------
  E------------------8-8-8-8-7-7-7-7-X4

  G--------------------
  D--------------------
  A--7-7--7-7---7-7--7-
  E--------------------
                                                          La tercera vez
  G--------------------------------------/------------------------------
  D--------------------------------------/------------------------------
  A--7(24 veces)--7-7--9-9--10-10--12-12-/--14-14--12-12--10-10--9-9--7-
  E--------------------------------------/------------------------------

  Solo de bajo:
        1      x2                    2
  G-----------------------/---------------------------------------------
  D-------------------7-9-/-------------------7-7--9-9--7-7-------------
  A--7-7--9-9--10-10------/--7-7--9-9--10-10-----------------10-10--9-9-
  E-----------------------/---------------------------------------------

   De nuevo la primera parte del solo pero cuatro veces y después esto:
       3    x2                    4    x2
  G----------------------/---------------------
  D--------7-7--5-5--4-4-/---------------------  otra vez la parte 1  4 veces
  A--5-5-----------------/-----------------5-7-  la parte 3  1 vez y esto 
  E----------------------/--5-5--7-7--8-8------  para terminar:

  G-------------------------------------------------------
  D--------5-5--3-3--2-2----------------------------------
  A--3-3---------------------2-2-2-2-2-2-2-2--32-53-75-97-
  E-------------------------------------------------------

  Cuando dice: 'repartámonos sus almas'
                x3
  G----------------------------------/-----------------------------
  D--5--5-5-5-5-5-5------------------/-----------------------------
  A------------------5--5-5-5-5-5-5--/--7-7-7-7-7-7-7-7-7-7-7--7-9-
  E----------------------------------/-----------------------------

  De nuevo el intro pero con variaciones:

  G--------------------/-----------------------------------
  D--------------------/-----------------------------------
  A--------------------/--7-7--5-5--7-7-7-7--7-7--8-8--7-7-
  E--0--0-0--0--0-0--0-/-----------------------------------

  G-----------------------------------
  D-----------------------------------
  A--7-7--5-5--7-7-7-7--7-7--5-5------
  E-------------------------------7-7-

  Parte de violín:
                                                    muchas veces
  G-----------------------------------------/-------------------------
  D-----------------------------------------/-------------------------
  A--7--7-7-7-------------------------------/-------------------------
  E------------8--8-8-8--7--7-7-7--5--5-5-5-/--3--3-3-3-3--5--5-5-5-5-

  G------------------------------------------------
  D------------------------------------------------
  A--5-5-5-5-5--3--3-3-3-3-------------------------
  E--------------------------------3--3-3-3-3--1-0-

  G--------------------
  D--------------------
  A--7-7--7-7---7-7--7-
  E--------------------

  Solo de guitarra (repetir cada nota las veces que sea necesario):

  G--------------------
  D--------------------
  A------8--7--7-5-3-2-
  E--5-----------------
                x3
  G-------------------------------/-------------------------------
  D-------------------------------/-------------------------------
  A-------------------------------/--5--5-5--5-5-5--3--3-3--3-3-3-
  E--3--3-3--3-3-3--5--5-5--5-5-5-/-------------------------------
  
     de nuevo repetir cada nota
  G----------/-----------
  D----------/-----------
  A--3-------/-----------
  E-----4--3-/--3 --4--3-

  Solo lento:

  G--------------------------
  D -------------------------
  A--------------------------
  E--5--3--3--5---5--0--0--5-

  Cuando dice: 'Ahora empiza tu camino...'

  G--------------------------/--------------
  D--------------------------/--------------
  A--0-2-3--3-3--2-0---------/--2-3-5--3-2-0
  E-----------------------3--/--------------

  Después de hacer todo esto dos veces, esto:

  G--------------/---------------
  D--------------/---------------
  A-----2-3-5--5-/--3-5-7--5-3-0-
  E--3-----------/---------------

  '!No a las dictaduras no a la impunidad...!'

  G-------------------------------------
  D-------------------------------------
  A-------------------------------------
  E--5-5-5-5--3-3-3-3--1-1-1-1--0-0-0-0-

  '!Juntemos las fuerzas para resistir a pinochet de CHILE...!'

  G---------------------------------------------------------
  D---------------------------------------------------------
  A---------------------------------------------------------
  E--5--5-5-5-5-5--3--3-3-3-3-3--1--1-1-1-1-1--0--0-0-0-0-0-

  Otro solo de violín:

  G--------------------------------------------------------------------
  D--------------------------------------------------------------------
  A----------------------------------------------------------------3---
  E--5--5-5-5-5-5-5-5--3--3-3-3--5--5-5-5--5--5-5-5-5-5-5-5--3--3----3-x2

  Después:

  G -----------------------------------
  D------------------------------------
  A----------------------------7-5-3-2-
  E--5--3--1--0--5--3--1---------------

                        Varias veces
  G----------------/------------------
  D----------------/------------------
  A----------------/------------------
  E--0-0-0-0-.....-/--0-0-2-0-3-2-0-2-

  'Buenos dias boletines de información...'

  G-----------------------------------------------------------------
  D-----------------------------------------------------------------
  A-----------------------------------------------------------------
  E--0--0-0-0-0-0-0--7--7-7-7-7-7-7--5--5-5-5-5-5-5--7--7-7-7-7-7-7-

 Después los MI de aquí arriba se tocan una octava más alto.

  'En Satania estás, es el fin del camino'

  G---------------------------------------
  D---------------------------------------
  A--7-7-7-7-7-7-7------------------------
  E----------------------8-8-8-8--7-7-7-7-

  De nuevo OH FINIS OH TERRA... y se toca igual que la segunda vez

  Para terminar esto:

         
  G-----------------------------------/-----------------------------------
  D-----------------------------------/-----------------------------------
  A--7-7-7-7-7-7-7-7--5-5-5-5-5-5-5-5-/--9-9-9-9-9-9-9-9--7-7-7-7-7-7-7-7-
  E-----------------------------------/-----------------------------------

  G-----------------------------------
  D-----------------------------------
  A-----------------------------------
  E--2--2--2-2-2-2---2-2-2-2--------2-

 
  Termina sin bajo: al principio con guitarra y flauta y después el sonido del mar

  Bueno eso es todo !!!!SUPER POCO!!!!

  !CHAO!
		   
AcordesyTabs.com © 2008 Acordes y Tablaturas para guitarra. Tabs and Chords for guitar. Aviso Legal - Contacto
El uso de este sitio está sujeto a la aceptación de los términos y condiciones (25 usuarios online)