tablaturas, partituras y acordes para guitarra
Busca por banda/artista:
 
y/o título de la canción:
A B C D E F G H I J K L M N O P Q R S T U V W X Y Z 0 1 2 3 4 5 6 7 8 9 / Top 100 tabs
Categorías
Usuarios
usuario:
Darse de alta
password:
Artistas más visitados
Publicidad
TOP acordes y tablaturas de Misfits


We are 13
de Misfits
Puntúa este acorde/tab:      
(0.3/5)
Reportar este acorde/tab
  Añadir a tus favoritos
  Imprimir


Title: 		We are 138
Band: 		The Misfits
Album:		Collection II
Transcribed By:	Mike Nickerson
My Email:	anguspunk2002@yahoo.com


E|-----------------------------------------------------------
B|-----------------------------------------------------------
G|--------10-10-10-10--6----8-------------------------------------------
D|--------10-10-10-10--6----8-------------------------------------------
A|--------8--8--8--8---4----6------------------------------------------
E|-----------------------------------------------------------

E|-----------------------------------------------------------
B|-----------------------------------------------------------
G|-------10-10-10---6----8-----6-6-6-6-8-8-8-8-------------------------------
D|-------10-10-10---6----8-----6-6-6-6-8-8-8-8-------------------------------
A|--------8-8--8----4----6-----4-4-4-4-6-6-6-6------------------------------
E|-----------------------------------------------------------

Solo
E|-----------------------------------------------------------
B|----17 18 18-18-17-18-18-18-17-18-18-17-18-18b18b-----------------
G|-----------------------------------------------------------
D|-----------------------------------------------------------
A|-----------------------------------------------------------
E|-----------------------------------------------------------

E|-----------------------------------------------------------
B|-----------------------------------------------------------
G|-----------------------------------------------------------
D|-----------------------------------------------------------
A|-----------------------------------------------------------
E|-----------------------------------------------------------

E|-----------------------------------------------------------
B|-----------------------------------------------------------
G|-----------------------------------------------------------
D|-----------------------------------------------------------
A|-----------------------------------------------------------
E|-----------------------------------------------------------



		   
AcordesyTabs.com © 2008 Acordes y Tablaturas para guitarra. Tabs and Chords for guitar. Aviso Legal - Contacto
El uso de este sitio está sujeto a la aceptación de los términos y condiciones (33 usuarios online)