tablaturas, partituras y acordes para guitarra
Busca por banda/artista:
 
y/o título de la canción:
A B C D E F G H I J K L M N O P Q R S T U V W X Y Z 0 1 2 3 4 5 6 7 8 9 / Top 100 tabs
Categorías
Usuarios
usuario:
Darse de alta
password:
Artistas más visitados
Publicidad
TOP acordes y tablaturas de los Brincos


Flamenco
de los Brincos
Puntúa este acorde/tab:      
(0.5/5)
Reportar este acorde/tab
  Añadir a tus favoritos
  Imprimir
Introducción
g-----------------------------|
d-------0-2-3-2-0-------0-----|
a-0-2-3-----------3-2-2---3-2-|
e-----------------------------|
 Dm
g-----------------------------|
d---------0---2-0-------------|
a---0-2-3---3-----3-2-2-r-3---|
e-3-------------------------3-|
 C
e---------------------0-------|
a-----------------------2-----|
g-------------0---2-0---------|
d-----0-2-3-2---3-------------|
a-1-3-------------------------|
e-----------------------------|
 Bb                       A Bb A Bb
A                 Bb
Si me preguntas a donde voy
A                 Bb
Y si tu quieres saber quien soy
A             Bb
Piensa que es fácil adivinar
           A    Bb    
Que yo soy yo hoo  hoooo
A                 Bb
Si te preocupa mi porvenir
A                  Bb
Puedes dejar de pensar en mi
A                 Bb
Nunca podrás hacerme cambiar
        A    Bb      A
Lo digo yo hoo  hooooo
Dm    C     Bb   A
Hoooo hoooo hoooo
Dm    C     Bb   A
Hoooo hoooo hoooo
A                 Bb
Piénsalo bien y decídete 
A                 Bb
No tengo tiempo para perder
A                  Bb
Pronto mi novia tú vas a ser
        A    Bb    
Lo digo yo hoo  hoooo
A                  Bb
Nunca jamás te arrepentirás
A                  Bb
Porque si buscas felicidad
A                 Bb
Solo a mi lado la encontrarás
        A    Bb      A
Lo digo yo hoo  hooooo
Bb   B  C   C Bb A  
Hoo hoo hoo 

Es versión del grupo LOS POTES
de Santiago de Compostela
		   
AcordesyTabs.com © 2008 Acordes y Tablaturas para guitarra. Tabs and Chords for guitar. Aviso Legal - Contacto
El uso de este sitio está sujeto a la aceptación de los términos y condiciones (20 usuarios online)