tablaturas, partituras y acordes para guitarra
Busca por banda/artista:
 
y/o título de la canción:
A B C D E F G H I J K L M N O P Q R S T U V W X Y Z 0 1 2 3 4 5 6 7 8 9 / Top 100 tabs
Categorías
Usuarios
usuario:
Darse de alta
password:
Artistas más visitados
Publicidad
TOP acordes y tablaturas de Enanitos Verdes


Estás en: Inicio > Letra E > Acordes y tablaturas de Enanitos Verdes > Lamento Boliviano
Lamento Boliviano
de Enanitos Verdes
Puntúa este acorde/tab:      
(0.6/5)
Reportar este acorde/tab
  Añadir a tus favoritos
  Imprimir
Bueno, esta cancion se va casi igual toda

G------4-4-4-------4-4------------------------------------
D--2-2-------2-2-2-----2------4-4-4---------4-------------
A-------------------------2-2-------2-2-2--2--1-----7-7-7-
E-----------------------------------------------5-5-------

G---------------------------------------
D---------------------------------4-4---
A--------7-7--------5-5-5-----2-2-----2-
E--5-5-5-----5--3-3-------3-3-----------

asi se va casi toda, pero en una que otra parte se va asi:

G------------------------------------ y esto se repite 
D--2-----2--------------------------- varias veces.
A----------2-----2-2-1-------------2-
E----------------------5------3------

oiganla y dicedan ustedes donde tocar que; y al final se toca esto:

G-----------------------------------------------------
D--2----2---------2-----2------------------2--2--0----
A---------2-----2---------2----2--------------------2-
E--------------------------------5-----3--------------

aqui acaba la rola.

Si alguien busca esto y le interesa que meta mas tabs para bajo 
mandenme un e-mail. Busquen en el area de Mana, he hecho varios 
tabs para bajo ahi.
		   
AcordesyTabs.com © 2008 Acordes y Tablaturas para guitarra. Tabs and Chords for guitar. Aviso Legal - Contacto
El uso de este sitio está sujeto a la aceptación de los términos y condiciones (46 usuarios online)