tablaturas, partituras y acordes para guitarra
Busca por banda/artista:
 
y/o título de la canción:
A B C D E F G H I J K L M N O P Q R S T U V W X Y Z 0 1 2 3 4 5 6 7 8 9 / Top 100 tabs
Categorías
Usuarios
usuario:
Darse de alta
password:
Artistas más visitados
Publicidad
TOP acordes y tablaturas de Inconciente Colectivo


Frágil
de Inconciente Colectivo
Puntúa este acorde/tab:      
(1.2/5)
Reportar este acorde/tab
  Añadir a tus favoritos
  Imprimir
Aquí está la introducción de esta excelente canción...
Espero que les guste!!!!!!



E--------------------------------|--------------------------------|
A--------------------------------|--------------------------------|
D--------------------------------|--11---------11---------11------|
G--7----------7----------7-------|--------------------------------|
B-----10---------10---------10---|------10---------10---------10--|
E---------10---------10----------|----------9----------9----------|




E--------------------------|---------------------------|
A--------------------------|---------------------------|
D--9--------9--------9-----|---------------------------|
G--------------------------|---------------------------|  <--- todo se repite 4 veces
B-----8--------8--------8--|--10-----10--12--10--------|
E--------7--------7--------|------9--------------9--7--|
                                                    |
                                                   (aquí vuelve a empezar)





y que viva el Rock Tico!!!!!!!
		   
AcordesyTabs.com © 2008 Acordes y Tablaturas para guitarra. Tabs and Chords for guitar. Aviso Legal - Contacto
El uso de este sitio está sujeto a la aceptación de los términos y condiciones (33 usuarios online)