tablaturas, partituras y acordes para guitarra
Busca por banda/artista:
 
y/o título de la canción:
A B C D E F G H I J K L M N O P Q R S T U V W X Y Z 0 1 2 3 4 5 6 7 8 9 / Top 100 tabs
Categorías
Usuarios
usuario:
Darse de alta
password:
Artistas más visitados
Publicidad
TOP acordes y tablaturas de Carnaval de Cadiz


Las Marujas
de Carnaval de Cadiz
Puntúa este acorde/tab:      
(0.4/5)
Reportar este acorde/tab
  Añadir a tus favoritos
  Imprimir
Tablatura para bandurria 

** falseta **

1|--57452----0-02*----4524------0*4*5*---555431*--444320*-------
2|---------23-3---0*--------0230--------------------------------
3|--------------------------------------------------------------
4|--------------------------------------------------------------
5|--------------------------------------------------------------
6|--------------------------------------------------------------

1|-22210----------0*---1*3*0*-----------------------------------
2|------3*---00023--------------0230---reM----------------------
3|--------------------------------------------------------------
4|--------------------------------------------------------------
5|--------------------------------------------------------------
6|--------------------------------------------------------------

1|-0*--010*--010*--010-------010--------------------------------
2|---13----13----13---3*3-------310-----------------------------
3|----------------------------------3---------------------------
4|--------------------------------------------------------------
5|--------------------------------------------------------------
6|--------------------------------------------------------------

** tango **

1|-0*--010*--010*--010------------0*----0*----0-----------------
2|---13----13----13---3*3----3*013--3013--3013-31*1-------------
3|--------------------------------------------------------------
4|--------------------------------------------------------------
5|--------------------------------------------------------------
6|--------------------------------------------------------------

1|-0*--010*---000--555331*---5553100--000--0--------------------
2|---13----------------------------------31-310-----------------
3|---------------------------------------------3----------------
4|--------------------------------------------------------------
5|--------------------------------------------------------------
6|--------------------------------------------------------------

1|--------------------------------------01013*------------------
2|----0--0*-----01--01*-----013--013*--3------------------------
3|--23-23------3---3--------------------------------------------
4|--------------------------------------------------------------
5|--------------------------------------------------------------
6|--------------------------------------------------------------

1|---01*----0*----------0*----01*-----0*-----0000--020----------
2|--3-----13-----0033013-----3------13----------------2*--------
3|--------------------------------------------------------------
4|--------------------------------------------------------------
5|--------------------------------------------------------------
6|--------------------------------------------------------------

1|--0*5420-20--0*542024*---7*745--04402---220--0*---------------
2|--------3------------------------------3---23-----------------
3|--------------------------------------------------------------
4|--------------------------------------------------------------
5|--------------------------------------------------------------
6|--------------------------------------------------------------

1|--0*5420-20--3*333202*----02542*20--5420--0-----02542*20*-----
2|--------3---------------3*--------------23----3*--------------
3|--------------------------------------------------------------
4|--------------------------------------------------------------
5|--------------------------------------------------------------
6|--------------------------------------------------------------

1|--0254520*--0254520*--00022245*0---055440245*---45------------
2|--------------------------------------------------------------
3|--------------------------------------------------------------
4|--------------------------------------------------------------
5|--------------------------------------------------------------
6|--------------------------------------------------------------


** dedicado a mi coro, y a la familia q tanto nos agunta **
		   
AcordesyTabs.com © 2008 Acordes y Tablaturas para guitarra. Tabs and Chords for guitar. Aviso Legal - Contacto
El uso de este sitio está sujeto a la aceptación de los términos y condiciones (19 usuarios online)