tablaturas, partituras y acordes para guitarra
Busca por banda/artista:
 
y/o título de la canción:
A B C D E F G H I J K L M N O P Q R S T U V W X Y Z 0 1 2 3 4 5 6 7 8 9 / Top 100 tabs
Categorías
Usuarios
usuario:
Darse de alta
password:
Artistas más visitados
Publicidad
TOP acordes y tablaturas de Green day


Dry ice
de Green day
Puntúa este acorde/tab:      
(0.1/5)
Reportar este acorde/tab
  Añadir a tus favoritos
  Imprimir
- Intro:

e | ------------------------------------- | 
B | ------------------------------------- | 
G | ---7--------7------7--------7-------- | 
D | ---7-----7-----7---7-----7-----7----- | 
A | ---5--5------------5--5-------------- | 
E | ------------------------------------- |  (2x)


A                 C#              D             A
Late last night I had a dream and she was in it again
A              C#         D              E
She and I were in the sky flying hand in hand
A              C#                 D             A
I woke up in a cold sweat wishing she was by my side
A                   C#                 D               E
Praying that she'll dry the tears left on my face I've cried


D       A
   Oh I love her 
D                A
   Keep dreaming of her
D               A       D                  E
   Will I understand if she wants to be my friend?


A - C# - D - A  (2x)

A                  C#                  D            A
I'll send a letter to that girl asking her to be my own
A             C#                    D           E
But my pen is writing wrong so I'll say it in a song
A             C#                       D               A
Oh I love you more right now more than I've ever loved before
A                  C#                    D                E
Here's those words from these lips: I'll need you forever more


D       A
   Oh I love her 
D                A
   Keep dreaming of her
D               A       D                  E
   Will I understand if she wants to be my friend?   (2x)


G#            F#                D
Come ease the pain that's in my heart
G#            F#                D    E
Come ease the pain that's in my heart
G#            F#                D
Come ease the pain that's in my heart
G#            F#                D    E
Come ease the pain that's in my heart

- Base do solo:  
A  -  F#  -  D %

                 A  -  F#  -  D - E


- Solo:

e | ------------------------- 5------5------5------5-------------------------- | 
B | -----------------------7----7-8----8-7----7-5----5------------------------ | 
G | -------------------------------------------------------------------------- | 
D | --7-7-7/9--9--9-7---7----------------------------------------------------- | 
A | ------------------9------------------------------------------------------- | 
E | -------------------------------------------------------------------------- | 

e | -------------------------------------------------------------------------- | 
B | -------------------------------------------------------------------------- | 
G | -------------------------------------------------------------------------- | 
D | ------------------------------------7---7--11--11------------------------- | 
A | --7-7-7/9--9--9-7---------------7-9---9----------------------------------- | 
E | ------------------9--9-9--4-7-9------------------------------------------- | 

e | ----------------------------------------17-17-17-15-14-------------------- | 
B | --------14--14--14/15-17--17-15-14-14------------------17-15-14----------- | 
G | --14/16---------------------------------------------------------16-14-14-- | 
D | -------------------------------------------------------------------------- | 
A | -------------------------------------------------------------------------- | 
E | -------------------------------------------------------------------------- | 

e | -------9----9-----10----10------12-----12------16------16----------------- | 
B | -------------------------------------------------------------------------- | 
G | ---------------9------9-----11------11-----13------13-----13-------------- | 
D | --7/9-----9--------------------------------------------------------------- | 
A | -------------------------------------------------------------------------- | 
E | -------------------------------------------------------------------------- | 


- Repetir primeiro canto

- Refrão (2x)


G#            F#                D
Come ease the pain that's in my heart
G#            F#                D    E
Come ease the pain that's in my heart
G#            F#                D
Come ease the pain that's in my heart
G#            F#                D    E
Come ease the pain that's in my heart

- Termina em
 A 		   
AcordesyTabs.com © 2008 Acordes y Tablaturas para guitarra. Tabs and Chords for guitar. Aviso Legal - Contacto
El uso de este sitio está sujeto a la aceptación de los términos y condiciones (10 usuarios online)