tablaturas, partituras y acordes para guitarra
Busca por banda/artista:
 
y/o título de la canción:
A B C D E F G H I J K L M N O P Q R S T U V W X Y Z 0 1 2 3 4 5 6 7 8 9 / Top 100 tabs
Categorías
Usuarios
usuario:
Darse de alta
password:
Artistas más visitados
Publicidad
TOP acordes y tablaturas de Intocable


Estás en: Inicio > Letra I > Acordes y tablaturas de Intocable > Fuerte no soy
Fuerte no soy
de Intocable
Puntúa este acorde/tab:      
(0.8/5)
Reportar este acorde/tab
  Añadir a tus favoritos
  Imprimir
INTRO:
    D                                D7Maj
e -------------0-------2-------3--2-------------0-------2-------3--2--
B --------3-------3-------3----------------2-------2-------2----------
G -----2-----2-------2-------2----------2-----2-------2-------2-------
D --0--------------------------------0--------------------------------
A --------------------------------------------------------------------
E --------------------------------------------------------------------

    Bm                                             A           Asus4 A
e -------------2--------------------2--------------0--0--0--0---0----0--
B --------3-------3-----3------3-------3-----3-----2--2--2--2---3----2--
G -----4-----4-------4------4-----4-------4-----4--2--2--2--2---2----2--
D -------------------------------------------------2--2--2--2---2----2--
A --2----------------------------------------------0--0--0--0---0----0--
E -------------------------2-----------------------0--0--0--0---0----0--

Bajo:
    D    D7Maj   Bm     A 
e -------------------------
B -------------------------
G -------------------------
D --0----------------------
A -----4^5^4---4/2---2--0--
E -------------------------

D
Me dices que vas
        Dmaj7                 Bm
porque ya no soportas tu amarga soledad
           G                   A7
que ya no soy romantico como cuando
                     D
te empeze  a conquistar
            F#7
que me olvide de los pequeños detalles
                  Bm
que te hacian vibrar
          G                  Em
que me rodea un amrdura de acero 
         A7       
dificil de penetrar

e ---------------------
B ---------------------
G ------7--9--7-----7--
D --7^9----------9-----
A ---------------------
E ---------------------

              D
Se que en verdad
                      A7                  Bm
todo lo que estas diciendo no lo puedo negar
         G                      A7
y me lastima en lo profundo del alma
                  D
que quieras terminar
          F#7
mi mente loca al sentirte segura
             Bm
no supo valorar
          G                            Em
todo el amor que tu me dabas, me arrepiento
                   A7
creo que voy a llorar

            D
...Y la verdad es que no soy
      A          F#7   Bm
tan fuerte como lo pensaba

e --------------------------------------------
B -----2--3--2--3--2--3--------2--3--2--3-----
G --4--------------------4--4--------------4--
D --------------------------------------------
A --------------------------------------------
E --------------------------------------------

            G                         Em
mi voz se quiebra estoy temblando de miedo
                    A  G  F#m  Em      
pues sin ti no soy nada

             D                       A
...Si tu me dejas quedare muerto en vida
    F#7    Bm
mi mundo se acabara
          G                 Em
sera imposible para mi existir
                      A  G  F#7  Em
sin tu voz, sin tu cara.

          G                   A7
Y arrepentido de todos mis errores
                  F#m   Bm
te suplico por favor
          G                      A7
que no me odies y que no me abandones
                  
Bm  A  Em  A  G  F#m  Em
Bm  A  Em  A  G  F#m  Em

    A y Em 
e ----------------------------
B --7--7^5------5------------
G ------------7------7--4-----
D -------------------------7--
A ----------------------------
E ----------------------------

            D
...Y la verdad es que no soy
      A          F#7   Bm
tan fuerte como lo pensaba
            G                         Em
mi voz se quiebra estoy temblando de miedo
                    A  G  F#m  Em      
pues sin ti no soy nada

             D                       A
...Si tu me dejas quedare muerto en vida
    F#7    Bm
mi mundo se acabara
          G                 Em
sera imposible para mi existir
                      A  G  F#7  Em
sin tu voz, sin tu cara.

          G                   A7
Y arrepentido de todos mis errores
                  F#m   Bm
te suplico por favor
          G                      A7
que no me odies y que no me abandones
                  D      A7    Bm
porque fuerte no soy, oh oh oh oh
          G                      A7
que no me odies y que no me abandones
                  D      A7    Bm
porque fuerte no soy, oh oh oh oh

Bm  A  Em  A  G  F#m  Em
Bm  A  Em  A  G  F#m  Em
		   
AcordesyTabs.com © 2008 Acordes y Tablaturas para guitarra. Tabs and Chords for guitar. Aviso Legal - Contacto
El uso de este sitio está sujeto a la aceptación de los términos y condiciones (31 usuarios online)