tablaturas, partituras y acordes para guitarra
Busca por banda/artista:
 
y/o título de la canción:
A B C D E F G H I J K L M N O P Q R S T U V W X Y Z 0 1 2 3 4 5 6 7 8 9 / Top 100 tabs
Categorías
Usuarios
usuario:
Darse de alta
password:
Artistas más visitados
Publicidad
TOP acordes y tablaturas de Zona 7


Estás en: Inicio > Letra Z > Acordes y tablaturas de Zona 7 > La vida es como neblina
La vida es como neblina
de Zona 7
Puntúa este acorde/tab:      
(0.6/5)
Reportar este acorde/tab
  Añadir a tus favoritos
  Imprimir
             ¡Que tal!... Aquíles va esta rola; tienen
   que tener mucho cuidado con los tiempos pero con un 
   poco de perseverancia lograrán tocarla como en el cd.


        //INTRO://
E -3----3-3-3------3-----------------
A -----------------------------------
D ----5----------5-------------------

E -0-----0-0-0------0-------------------------------------
A ------------------------3-3---3-3-3-3----3-3---3-3-3-3--
D ----2-----------2---------------------------------------
        


             //2 VECES//
E --3---3-3----3----3-3------------------------------
A ---------------------------3---3-3----3---3-3------

E --5--5-5--------------3------0-0-0-----------------------------
A ------------5--5-5-------5------------3---3-3----5---5-5---555-


//CORO://
E -3----3-3-3-----3----0-----0-0-0------0-----------------------------------
A -----------------------------------------------3-3--3-3-3-3--5-5--5-5-5-5-
D ----5----------5----------2-----------2-----------------------------------


FINAL:
E -8----12-------12---9---12--------12-----8-7------
A ------------10------------------10----------------

    Espero que les sea de bendición; y para cualquier
duda, aclaración o solo por amistad escríbanme a mi correo
O.K.   GOD BLESS YOU. !!!
		   
AcordesyTabs.com © 2008 Acordes y Tablaturas para guitarra. Tabs and Chords for guitar. Aviso Legal - Contacto
El uso de este sitio está sujeto a la aceptación de los términos y condiciones (26 usuarios online)